PrimaNota.ru - самый крупный в мире бесплатный архив песенных текстов, аккордов, табулатур и нот


Hang The Bastard - Doomed Fucking Doomed - бас-таба, видео

Регистрация Запомнить меня
Войти через:  Facebook Google Twitter Vk Yandex Mail.ru

Hang The Bastard - Doomed Fucking Doomed - бас-таба, видео

Печатать
Просмотров: 92
HANG THE BASTARD - DOOMED FUCKING DOOMED

 E|-------------------|
 B|-------------------|
Gb|-7-----------------|
Db|-------------------|

 E|----------------------------------|
 B|----------------------------------|
Gb|-7-7-7-7-8-7-6-6-7-7-7-10-10-8-8--| 1,3
Db|----------------------------------|

 E|-------------------------------|
 B|-------------------------------|
Gb|-7-7-7-7-8-7-6-6-7-7-7-----5-5-| 2,4
Db|-----------------------3-3-----|

 E|-----------------------|
 B|-----------------------|
Gb|-7-----7-----7-------5-| 1,3,5,7
Db|---000---000---000-3---|

 E|---------------------------|
 B|---------------------------|
Gb|-7-----7-----7-----3h5p3---| 2,6
Db|---000---000---000-------3-|

 E|---------------------------|
 B|---------------------------|
Gb|-7-----7-----7-----888-555-| 4,8
Db|---000---000---000---------|

 E|--------------------------------|
 B|--------------------------------|
Gb|--------------------------------| x4
Db|-0-0-0-0-0-0-0-0-0-0-0-0-0-0----|

 E|----------------------|
 B|----------------------|
Gb|----------------------| x2
Db|-0----8-7----0----3-1-|

 E|------------------------------------------------------|
 B|------------------------------------------------------|
Gb|------------------------------------------------------| x2
Db|-0----8--7--5--0----8--7--5--0----8--7--3--2--0--3--2-|

 E|---------------|
 B|---------------|
Gb|---------------|
Db|-0-------------|

guitar on it's own x2

 E|-------------------------------------------------------------|
 B|-------------------------------------------------------------|
Gb|-7-------------------------8-7-5-3-3-3-3-8-7-3-5-5-5-5-5-7-5-| x4
Db|---0-0-0-0-0-0-0-0-0-0-0-0-----------------------------------|

 E|-----------------------|
 B|-----------------------|
Gb|-7-----7-----7-------5-| 1,3,5,7
Db|---000---000---000-3---|

 E|---------------------------|
 B|---------------------------|
Gb|-7-----7-----7-----3h5p3---| 2,4,6,8
Db|---000---000---000-------3-|

Guitar on It's own x1

 E|----------------------------------|
 B|----------------------------------|
Gb|-7-7-7-7-8-7-6-6-7-7-7-10-10-8-8--| 1
Db|----------------------------------|

 E|-------------------------------|
 B|-------------------------------|
Gb|-7-7-7-7-8-7-6-6-7-7-7-----5-5-| 2
Db|-----------------------3-3-----| 
Добавлено: 10.08.2013
Другие материалы по этой песне:
  • Аккорды и текст

Страница создана 10.08.2013
http://primanota.ru/hang-the-bastard/doomed-fucking-doomed-chords.htm
Привет, Гость.
Предлагаем пройти революционный курс по гитаре.
Подарок от PrimaNota.Ru, забирай!