PrimaNota.ru - самый крупный в мире бесплатный архив песенных текстов, аккордов, табулатур и нот


Hang The Bastard - 1888 - таба, видео

Регистрация Запомнить меня
Войти через:  Facebook Google Twitter Vk Yandex Mail.ru

Hang The Bastard - 1888 - таба, видео

Печатать
Просмотров: 64
HANG THE BASTARD - 1888 

http://www.facebook.com/hangthebastard

C#|-------------------------------------|
G#|-------------------------------------|
 E|-------------------------------------| 
 B|-------------------------------------| 1,3,5,7,9,11
F#|-3-3-3-3-3-3-3-3-3-3-3-3-4-3-1-1-3-4-|
 B|-3-3-3-3-3-3-3-3-3-3-3-3-4-3-1-1-3-4-|
    P M P M P M P M P M P M

C#|-------------------------------------|
G#|-------------------------------------|
 E|-------------------------------------| 
 B|-------------------------6-5-6-8-6-5-| 2,6,10
F#|-3-3-3-3-3-3-3-3-3-3-3-3-4-3-4-6-4-3-|
 B|-3-3-3-3-3-3-3-3-3-3-3-3-------------|
    P M P M P M P M P M P M

C#|-----------------------------------|
G#|-----------------------------------|
 E|-----------------------------------| 
 B|-----------------------------------| 4,8,12
F#|-3-3-3-3-3-3-3-3-3-3-3-3-2222-1111-|
 B|-3-3-3-3-3-3-3-3-3-3-3-3-----------|
    P M P M P M P M P M P M

C#|-------------------------------------------------------------|
G#|-------------------------------------------------------------|
 E|-------------------------------------------------------------| 
 B|-------------------------------------------------------------| x2
F#|-0-0-0-0-0-0-0-0-0-0-0-0-1-1-1-1-1-1-1-1-4-4-4-4-4-4-4-3-1-3-|
 B|-0-0-0-0-0-0-0-0-0-0-0-0-1-1-1-1-1-1-1-1-4-4-4-4-4-4-4-3-1-3-|
    P M P M P M P M P M P M P M P M P M P M P M P M P MPM

C#|--------------------------------------------------------------|
G#|--------------------------------------------------------------|
 E|-7----8----7---7----8----7---8----8----11----11----11-10-8-10-| 
 B|--------------------------------------------------------------| x2
F#|-5-00-6-00-5-0-5-00-6-00-5-0-6-00-6-00-9--00-9--00-9--8--6-8--|
 B|---00---00---0---00---00---0---00---00----00----00------------|
      PM   PM   PM  PM   PM  PM   PM   PM    PM    PM

C#|--------------------------------------|
G#|--------------------------------------|
 E|--------------------------------------| 
 B|--------------------------8-------7---| x2
F#|-----0-1-4-------0-1--9-9---9-8-8---8-|
 B|-12/-0-1-4---12/-0-1------------------|

C#|-------------------------------------|
G#|-------------------------------------|
 E|-------------------------------------| 
 B|-------------------------------------| 1,3,5,7
F#|-3-3-3-3-3-3-3-3-3-3-3-3-4-3-1-1-3-4-|
 B|-3-3-3-3-3-3-3-3-3-3-3-3-4-3-1-1-3-4-|
    P M P M P M P M P M P M 

C#|-------------------------------------|
G#|-------------------------------------|
 E|-------------------------------------| 
 B|-------------------------6-5-6-8-6-5-| 2,6
F#|-3-3-3-3-3-3-3-3-3-3-3-3-4-3-4-6-4-3-|
 B|-3-3-3-3-3-3-3-3-3-3-3-3-------------|
    P M P M P M P M P M P M

C#|-----------------------------------|
G#|-----------------------------------|
 E|-----------------------------------| 
 B|-----------------------------------| 4,8
F#|-3-3-3-3-3-3-3-3-3-3-3-3-2222-1111-|
 B|-3-3-3-3-3-3-3-3-3-3-3-3-----------|
    P M P M P M P M P M P M

C#|-------------------------------------------------------------|
G#|-------------------------------------------------------------|
 E|-------------------------------------------------------------| 
 B|-------------------------------------------------------------| x2
F#|-0-0-0-0-0-0-0-0-0-0-0-0-1-1-1-1-1-1-1-1-4-4-4-4-4-4-4-3-1-3-|
 B|-0-0-0-0-0-0-0-0-0-0-0-0-1-1-1-1-1-1-1-1-4-4-4-4-4-4-4-3-1-3-|
    P M P M P M P M P M P M P M P M P M P M P M P M P MPM

C#|--------------------------------------------------------------|
G#|--------------------------------------------------------------|
 E|-7----8----7---7----8----7---8----8----11----11----11-10-8-10-| 
 B|--------------------------------------------------------------| x2
F#|-5-00-6-00-5-0-5-00-6-00-5-0-6-00-6-00-9--00-9--00-9--8--6-8--|
 B|---00---00---0---00---00---0---00---00----00----00------------|
      PM   PM   PM  PM   PM  PM   PM   PM    PM    PM

G#|--------------------------------------|
 E|--------------------------------------| 
 B|--------------------------8-------7---| x2
F#|-----0-1-4-------0-1--9-9---9-8-8---8-|
 B|-12/-0-1-4---12/-0-1------------------|

C#|--------------------------------------------------------------|
G#|--------------------------------------------------------------|
 E|--------------------------------------------------------------| 
 B|--------------------------------------------------------------| x2
F#|--------------------------------------------------------------|
 B|-000000000-1111-444444444-0000000000-1111-444444444-333333333-|

C#|-----------------------------------------------------------------|
G#|-----------------------------------------------------------------|
 E|-----------------------------------------------------------------| 
 B|-------------------------------------------------8-------7-------|
F#|-5-5-5-5-6-5-5-5-5-8-9-5-5-9-8-5-5-5-5-6-5-5-5-5---9-5-5---8-5-5-|
 B|-----------------------------------------------------------------|
    P M P M P M P M P M P M P M P M P M P M P M P M P M P M P M P M

C#|--------------------------------------------------------|
G#|--------------------------------------------------------|
 E|--------------------------------------------------------| 
 B|-------------------------------------------------4----3-|
F#|-5-5-5-5-6-5-5-5-5-8-9-5-5-9-8-5-5-5-5-6-5-5-5-5-4----3-|
 B|-------------------------------------------------4----3-|
    P M P M P M P M P M P M P M P M P M P M P M P M 

C#|-----------------------------------------------------------|
G#|-----------------------------------------------------------|
 E|-----------------------------------------------------------| 
 B|-----------------------------------------------------------| 1,3,4
F#|-0-0-0-0-1-0-0-0-0-3-4-0-0-4-3-0-0-0-0-1-0-0-0-1---0-0-0---|
 B|-0-0-0-0-1-0-0-0-0-3-4-0-0-4-3-0-0-0-0-1-0-0-0---4-0-0---3-|
    P M P M   P M P M     P M     P M P M   P MPM     P M

C#|-----------------------------------------------------|
G#|-----------------------------------------------------|
 E|-----------------------------------------------------| 
 B|-----------------------------------------------4---3-| 2
F#|-0-0-0-0-1-0-0-0-0-3-4-0-0-4-3-0-0-0-0-1-0-0-0-4---3-|
 B|-0-0-0-0-1-0-0-0-0-3-4-0-0-4-3-0-0-0-0-1-0-0-0-4---3-|
    P M P M   P M P M     P M     P M P M   P MPM    

C#|-----------------------------------------------------------|
G#|-----------------------------------------------------------|
 E|-----------------------------------------------------------| 
 B|-----------------------------------------------------------| x2 
F#|-0-0-0-0-1-0-0-0-0-3-4-0-0-4-3-0-0-0-0-1-0-0-0-1---0-0-0---|
 B|-0-0-0-0-1-0-0-0-0-3-4-0-0-4-3-0-0-0-0-1-0-0-0---4-0-0---3-|
    P M P M   P M P M     P M     P M P M   P MPM     P M

SLOWED DOWN ^^^

END
Добавлено: 02.06.2013
Другие материалы по этой песне:
  • Аккорды и текст

Страница создана 02.06.2013
http://primanota.ru/hang-the-bastard/1888-chords.htm
Привет, Гость.
Предлагаем пройти революционный курс по гитаре.
Подарок от PrimaNota.Ru, забирай!