PrimaNota.ru - самый крупный в мире бесплатный архив песенных текстов, аккордов, табулатур и нот


Handsome Devil - Elephant Bones - таба, видео

Регистрация Запомнить меня
Войти через:  Facebook Google Twitter Vk Yandex Mail.ru

Handsome Devil - Elephant Bones - таба, видео

Печатать
Просмотров: 113
Hey this is the highest rated "Elephant Bones" tab with a little change to make is sound 
The change takes place in the chorous. Not trying to plagerize.. This is from and 
user in version 2.  Almost got it, but i think it sounds better this way.

e|-------------------------------------------------------------------------|
B|-------------------------------------------------------------------------|
G|-------------------------------------------------------5-6-5~------5--4~-|
D|---------------------------4----------------4----------------------------|
A|--------------------6~-6-7---7-6-7-6~---6-7---7-6-7-6~-------------------|
E|--4444333322221111-------------------------------------------------------|


e|-------------------------------|
B|-------------------------------|
G|-4-5-4~------4~----5~---5-6-5~~|
D|----------------7~-------------| Then it goes to the awesome chorus!
A|-------------------------------|
E|-------------------------------|


e|----------------------------------------|
B|----------------------------------------|
G|----------------------------------------|
D|----------------------------------------| Play this 4 times
A|-------2-4-24542-------------2-4~-------|
E|--4--44----------42--44-2-4-------------|


e|------------------------------------------------------|
B|------------------------------------------------------|
G|------------------------------------5-6-5~------5--4~-|
D|--------4----------------4----------------------------|
A|-6~-6-7---7-6-7-6~---6-7---7-6-7-6~-------------------|
E|------------------------------------------------------|

e|-------------------------------|
B|-------------------------------|
G|-4-5-4~------4~----5~---5-6-5~~|
D|----------------7~-------------| Then back to the chorus.
A|-------------------------------|
E|-------------------------------|


e|----------------------------------------|
B|----------------------------------------|
G|----------------------------------------|
D|----------------------------------------| Play this 4 times again
A|-------2-4-24542-------------2-4~-------|
E|--4--44----------42--44-2-4-------------|


Okay I haven't finished it, I know there's a solo, sort of... But yeah anyways it ends
this:

e|----------------------|
B|----------------------|
G|----------------------|
D|----------------------|
A|----------------------|
E|--4444333322221111----|

Hope y'all enjoy playing this song! It's not very "shredding" type, but it's fun and
to play!
Добавлено: 06.05.2012
Другие материалы по этой песне:
  • Аккорды и текст

Страница создана 06.05.2012
http://primanota.ru/handsome-devil/elephant-bones-chords.htm
Привет, Гость.
Предлагаем пройти революционный курс по гитаре.
Подарок от PrimaNota.Ru, забирай!