PrimaNota.ru - самый крупный в мире бесплатный архив песенных текстов, аккордов, табулатур и нот


Handsome and Gretyl - Avalanche - аккорды и текст, видео

Регистрация Запомнить меня
Войти через:  Facebook Google Twitter Vk Yandex Mail.ru

Handsome and Gretyl - Avalanche - аккорды и текст, видео

Печатать
Просмотров: 94
Уроки эстрадного вокала в Санкт-Петербурге
Avalanche
Handsome and Gretyl
-------------------------------------------------------------------------------
                             AVALANCHE - Handsome and Gretyl
-------------------------------------------------------------------------------
Tabbed by: DownToFunk


Tuning: Standard EADGBe

Capo: II
Chords: Am C G F


Intro: 

    Am  
e|---------------------------------------------------------------------------|
B|--1-------1------1-------1------1-------1---------1-------1-------1--------|
G|------2-------2-------2-------2-------2-------2-------2-------2-------2----|
D|----2-------2-------2-------2-------2-------2-------2-------2-------2------|
A|--0-----0--------0------0-------0-----0---------0-------0-------0----------|
E|---------------------------------------------------------------------------|
             C
e|---------------------------------------------------------------------------|
B|----1-----1-------1-----1-------1-----1-------1-------1-------1-------1----|
G|--------2-----0-------0-----0-------0-----0-------0-------0-------0-------0|
D|------2-----2-------2-----2-------2-----2-------2-------2-------2-------2--|
A|--0-------3-----3-------3-----3-------3-----3-------3-------3-------3------|
E|---------------------------------------------------------------------------|

e|-----------|
B|----1------|
G|--------0--|   x4
D|------2----|
A|--3--------|
E|-----------|

Intro:
Am                                    C
Oh the miles, the miles look how they go
Am                                    C   
All the while, the while we've made a home
                                                                         G
And I don't know if I could love you anymore than what I'm feeling right now
F                                                                   C
Then tomorrow tends to show me there is more I can hold for you somehow 
                         Am F G
Where would I be without you 
                         Am F G
Where would I be without your love
          F             Am                  C  
There's a feeling in my bones that says I'd keep a going
G                        Am F G   Am
Where would I be without you, you
Am                                C   
Oh the time, the time look how it flew
Am                                         C 
All the heights, the heights we've made it to
                                                                 G 
And I don't know if I'd a made it any sooner getting there on my own
F                                                              C 
Love the way you let me know that I will never have to go it alone
                        Am F G 
What would I do without you 
                        Am F G
What would I do without your light 
          F            Am                  C 
There's a hoping in my heart that says I'd brave the dark 
G                       Am F G
What would I do without you 
               F C G Am           F C G Am  C   
So come on avalanche, come on avalanche...
                         Am F G 
Where would I be without you
                         Am F G    C
Where would I be without your love
                         Am F G 
Where would I be without you
                         Am F G 
Where would I be without your love
          F             Am
There's a feeling in my bones
          F             C  
There's a feeling in my bones 
      F             Am         C             G  
Got a feeling in my bones that I'll not be alone
                   Am F G
Never am I without you, you


************************************

| /   slide up
| \   slide down
| h   hammer-on
| p   pull-off
| ~   vibrato
| +   harmonic
| x   Mute note
| b   Bend
| pb  Pre-bend
| br  Bend release
| pbr Pre-bend release
| brb Bend release bend

************************************
Добавлено: 31.05.2016
Другие материалы по этой песне:
  • Аккорды и текст

Страница создана 31.05.2016
http://primanota.ru/handsome-and-gretyl/avalanche-chords.htm
Привет, Гость.
Предлагаем пройти революционный курс по гитаре.
Подарок от PrimaNota.Ru, забирай!