PrimaNota.ru - самый крупный в мире бесплатный архив песенных текстов, аккордов, табулатур и нот


Hands Like Houses - Shapeshifters - таба, видео

Регистрация Запомнить меня
Войти через:  Facebook Google Twitter Vk Yandex Mail.ru

Hands Like Houses - Shapeshifters - таба, видео

Печатать
Просмотров: 78
This would be much easier in drop c, but i know a lotta people dont want to drop 
down so here ya go :)



INTRO

Electric 1

E|------------------------------|
B|------------------------------|
G|-3-6-13-11-13-8--3-6-13-11-13-|
D|-x-x-x--x--x--x--x-x-x--x--x--|
A|-1-4-11-9--11-6--1-4-11-9--11-|
D|------------------------------|

Electric 2

E|------------------------------|
B|------------------------------|
G|------------------------------|
D|-1-4-11-9-11-6----1-4-11-9-11-|
A|-1-4-11-9-11-6----1-4-11-9-11-|
D|-1-4-11-9-11-6----1-4-11-9-11-|

VERSE (part 1)

Electric 2

E|---------------|
B|---------------|
G|---------------|
D|-1-4-11-9-11-6-|
A|-1-4-11-9-11-6-|
D|-1-4-11-9-11-6-|

VERSE (part 2)

Electric 1+2

E|------------------------------------|
B|------------------------------------|
G|------------6-8----------8-11-------|
D|-x-13-11-13-x-x-13-11-13-x-x--4-6-1-|
A|-x-13-11-13-4-6-13-11-13-6-9--4-6-1-|
D|-x-13-11-13-----13-11-13------4-6-1-|

PRE-CHORUS

Electric 1

E|--------------|
B|--------------|
G|-8-10-11-13---|
D|-x-x--x--x--1-|
A|-6-8--9--11-1-|
D|------------1-|

Electric 2

E|------|
B|------|
G|------|
D|-9-11-|
A|-9-11-|
D|-9-11-|

CHORUS

Electric 1
(pick with this)(at the end play the 10)
E|--9--9----------|
B|--11-11---------|
G|-/11-11------10-|
D|-----13---------|
A|----------------|
D|----------------|

Electric 2

E|----------------------|
B|----------------------|
G|----------------------|
D|-1-4-11-9-11-13-16-11-|
A|-1-4-11-9-11-13-16-11-|
D|-1-4-11-9-11-13-16-11-|

VERSE (part 1)

Electric 2

E|--------------|
B|--------------|
G|--------------|
D|-11-13-11-4-6-|
A|-11-13-11-4-6-|
D|-11-13-11-4-6-|

VERSE (part 2)

Electric 1+2

E|----------------------------------|
B|----------------------------------|
G|------------6-8----------8-11-----|
D|-13-11-13-x-x-13-11-13-x-x--4-6-1-|
A|-13-11-13-4-6-13-11-13-6-9--4-6-1-|
D|-13-11-13-----13-11-13------4-6-1-|

PRE-CHORUS

CHORUS

BRIDGE (part 1)

Electric 1
(tremelo)
E|-------------------|
B|----11-------------|
G|-11----10-11----10-|
D|-------------------|
A|-------------13----|
D|-------------------|

Electric 2

E|-------------|
B|-------------|
G|-------------|
D|-13-4-11-9-6-|
A|-13-4-11-9-6-|
D|-13-4-11-9-6-|

BRIDGE (part 2)

Electric 1

E|-----------------------------|
B|-----------------------------|
G|-8-3-6--3-6-13-12--8-6-13-12-|
D|-x-x-x--x-x-x--x---x-x-x--x--|
A|-6-1-4--1-4-11-10--6-4-11-10-|
D|-----------------------------|

Electric 2

E|------------------------------------|
B|------------------------------------|
G|------------------------------------|
D|-13-11-13----6-4--13-11-13----6-4-1-|
A|-13-11-13-x2-6-4--13-11-13-x3-6-4-1-|
D|-13-11-13----6-4--13-11-13----6-4-1-|

PRE-CHORUS

CHORUS
Добавлено: 07.09.2013
Другие материалы по этой песне:
  • Аккорды и текст

Страница создана 07.09.2013
http://primanota.ru/hands-like-houses/shapeshifters-chords.htm
Привет, Гость.
Предлагаем пройти революционный курс по гитаре.
Подарок от PrimaNota.Ru, забирай!