PrimaNota.ru - самый крупный в мире бесплатный архив песенных текстов, аккордов, табулатур и нот


Hands Like Houses - Fountainhead - таба, видео

Регистрация Запомнить меня
Войти через:  Facebook Google Twitter Vk Yandex Mail.ru

Hands Like Houses - Fountainhead - таба, видео

Печатать
Просмотров: 103
Artist: Hands Like Houses
Song: Fountainhead
Album: Unimagine
Tabbed by: gustavoaraujo999@hotmail.com

**Tabbed for (mostly) one guitar because I couldn't hear the rest. Sorry

0:14
C#|---------------------------------------|----------------------------------------------|
G#|-17171717171717-1515-171717171717-1515-|----------------------------------------------|
F#|-16161616161616-1414-161616161616-1414-|-/14-12-----------12-/14-12-------------------|
C#|---------------------------------------|--------14-12-14------------14--------12-14---|
G#|---------------------------------------|--------------------------------13-15---------|
C#|---------------------------------------|----------------------------------------------|

C#|---------------------------------------|----------------------------------------------|
G#|-17171717171717-1515-171717171717-1515-|----------------------------------------------|
F#|-16161616161616-1414-161616161616-1414-|-/14-12-----------12-/14-12-------------------|
C#|---------------------------------------|--------14-12-14------------14--------12-14---|
G#|---------------------------------------|--------------------------------13-15---------|
C#|---------------------------------------|----------------------------------------------|

C#|----------------------------------------------------------------/17-16-17---191919191919\-|
G#|-----------------------------------------------------/17-15-17--------------x-x-x-x-x-x---|
F#|/14-12-----------12---/14-12----------12---/17-16-17------------------------161616161616\-|
C#|-------14-12-14--------------14-12-14-----------------------------------------------------|
G#|------------------------------------------------------------------------------------------|
C#|------------------------------------------------------------------------------------------|

0:36
-guitar one
C#|----------------------------------------|
G#|-10-10-10-10--13-13-13-13--12-12-12-12--|
F#|-x--x--x--x---x--x--x--x---x--x--x--x---|
C#|-7--7--7--7---10-10-10-10--9--9--9--9---|
G#|----------------------------------------|
C#|----------------------------------------|

-guitar two
C#|----------------------------------------------------|
G#|----------------------------------------------------|
F#|----------------------------------------------------|
C#|-5555555555555555------------------7777777777777777-|
G#|------------------6655555555555555------------------|
C#|----------------------------------------------------|

C#|----------------------------------------------------|
G#|----------------------------------------------------|
F#|----------------------------------------------------|
C#|-5555555555555555------------------7777777777777777-|
G#|------------------8866666666666666------------------|
C#|----------------------------------------------------|

0:48
-guitar one
C#|------------------15-------------------------15-----17\\-------|
G#|-/15-----------17---------15--------------17-------------------|
F#|---------------------------------------------------------------|
C#|---------------------------------------------------------------|
G#|---------------------------------------------------------------|
C#|---------------------------------------------------------------|

-guitar two
C#|-------------------------------|
G#|-------------------------------|
F#|-/14----------------12---------|
C#|-----------------12----14--12--|
G#|-------12-14-15----------------|
C#|-------------------------------|

1:01
C#|---------------------------------------------15-----------15--------------------------------|
G#|-----------------------------12-13-12-----------13-12---------------------------------12----|
F#|-----------7-9-7-------12-14------------14-12----------14------12---------------12-14-------|
C#|------7-10---------14---------------------------------------------14-12---12-14-------------|
G#|-7-10---------------------------------------------------------------------------------------|
C#|--------------------------------------------------------------------------------------------|

C#|---------------------------------------------15-----------15--------------------------------|
G#|-----------------------------12-13-12-----------13-12---------------------------------12----|
F#|-----------7-9-7-------12-14------------14-12----------14------12---------------12-14-------|
C#|------7-10---------14---------------------------------------------14-12---12-14-------------|
G#|--------------------------------------------------------------------------------------------|
C#|--------------------------------------------------------------------------------------------|

1:15
C#|------------------------------------------|
G#|-------------------------------------[x4]-|
F#|------------------------------------------|
C#|-77777777-22222222-00000000-55556666------|
G#|-77777777-22222222-00000000-55556666------|
C#|-77777777-22222222-00000000-55556666------|

1:40
C#|-----------|-----------------|-----------|
G#|-----------|-----------------|-----------|
F#|-----------|-----------------|-----------|
C#|-----------|-----------------|-----------|
G#|-----3-----|-/7-5-3--5p3-0-3-|-----3-----|
C#|-7-7---7-7-|-----------------|-7-7---7-7-|

C#|-----------|-----------------|-----------|
G#|-----------|-----------------|-----------|
F#|-----------|-----------------|-----------|
C#|-----------|-----------------|-----------|
G#|-----3-----|-/7-5-3--5p3-0-3-|-----3-----|
C#|-7-7---7-7-|-----------------|-7-7---7-7-|

C#|-----------------------------------------------------------------------|
G#|--------------------------------------------10-8-----------------------|
F#|-------------------------------------------------9-7-------------------|
C#|-----------------------------------------------------------------------|
G#|-7-5-3-5-0-3---7-5-3-5-0-3---7-5-3-5-0-3-7-----------------------------|
C#|-----------------------------------------------------------------------|

2:10
C#|------------------------------------------|
G#|-------------------------------------[x4]-|
F#|------------------------------------------|
C#|-77777777-22222222-00000000-55556666------|
G#|-77777777-22222222-00000000-55556666------|
C#|-77777777-22222222-00000000-55556666------|

2:36
C#|---------------------------------|-----------------------------|
G#|-10-8----------------------------|-----------------------------|
F#|------9-7----------7-7/9\7-----7-|----------------7-9-7----7---|
C#|----------10-7-10-----------10---|-7---------7-10-------10-----|
G#|---------------------------------|---10-7-10-------------------|
C#|---------------------------------|-----------------------------|

C#|-------------------------------|-------------12h13p12-------------------|---------12--|
G#|----12-------------------------|----12-13-15----------13----12-14-15-17-|-------12----|
F#|-14----14-12-14-------12-14----|-14----------------------14-------------|-----13------|
C#|----------------12-14-------14-|----------------------------------------|---14--------|
G#|-------------------------------|----------------------------------------|-14----------|
C#|-------------------------------|----------------------------------------|-------------|

2:52
C#|---------------------------------------------15-----------15--------------------------------|
G#|-----------------------------12-13-12-----------13-12---------------------------------12----|
F#|-----------7-9-7-------12-14------------14-12----------14------12---------------12-14-------|
C#|------7-10---------14---------------------------------------------14-12---12-14-------------|
G#|-7-10---------------------------------------------------------------------------------------|
C#|--------------------------------------------------------------------------------------------|

C#|---------------------------------------------15-----------15--------------------------------|
G#|-----------------------------12-13-12-----------13-12---------------------------------12----|
F#|-----------7-9-7-------12-14------------14-12----------14------12---------------12-14-------|
C#|------7-10---------14---------------------------------------------14-12---12-14-------------|
G#|--------------------------------------------------------------------------------------------|
C#|--------------------------------------------------------------------------------------------|

3:06
C#|------------------------------------------|
G#|-------------------------------------[x4]-|
F#|------------------------------------------|
C#|-77777777-22222222-00000000-55556666------|
G#|-77777777-22222222-00000000-55556666------|
C#|-77777777-22222222-00000000-55556666------|

3:32
C#|----------------------------------------------------------------/17-16-17---191919191919\-|
G#|-----------------------------------------------------/17-15-17--------------x-x-x-x-x-x---|
F#|/14-12-----------12---/14-12----------12---/17-16-17------------------------161616161616\-|
C#|-------14-12-14--------------14-12-14-----------------------------------------------------|
G#|------------------------------------------------------------------------------------------|
C#|------------------------------------------------------------------------------------------|

Добавлено: 30.10.2015
Другие материалы по этой песне:
  • Аккорды и текст

Страница создана 30.10.2015
http://primanota.ru/hands-like-houses/fountainhead-chords.htm
Привет, Гость.
Предлагаем пройти революционный курс по гитаре.
Подарок от PrimaNota.Ru, забирай!