PrimaNota.ru - самый крупный в мире бесплатный архив песенных текстов, аккордов, табулатур и нот


Гендель Георг Фридрих - Воздух в Bb - аккорды и текст

Регистрация Запомнить меня
Войти через:  Facebook Google Twitter Vk Yandex Mail.ru

Гендель Георг Фридрих - Воздух в Bb - аккорды и текст

Печатать
Просмотров: 184
Воздух в Bb
Гендель Георг Фридрих
Тональность: G
Строй: E A D G B E
Размер: 3/4

E|3-------2---0---------|------------------------|
B|----------------3---1-|0---------------1-------|
G|----------------------|0-----------------------|
D|----------------------|--------4---2---0-------|
A|----------------------|--------------------3---|
E|3---------------------|------------------------|

E|----------------------|----------------------|
B|3-------1---0---------|----------------------|
G|----------------2---0-|----------------0-----|
D|----------------------|4---------------------|
A|2---------------3-----|5-------3---2---0-----|
E|----------------------|--------------------3-|

E|------------------------|----------------------|
B|------------0---1-------|0-------0-------------|
G|2---0---2-----------2---|------------2---0-----|
D|----------------0-------|--------------------4-|
A|------------------------|----------------------|
E|2-----------------------|3---------------------|

E|0---------------------|----------------0-------|
B|--------0---2---3---0-|2-----------------------|
G|----------------0-----|2---------------0-------|
D|2---------------------|--------2---4-------2---|
A|----------------------|------------------------|
E|----------------------|------------------------|

E|5-------0---2---3---0-|2---------------------|
B|----------------------|----------------3-----|
G|--------0-------2-----|--------2-------------|
D|4---------------------|0---------------------|
A|----------------------|--------4-------2-----|
E|----------------------|----------------------|

E|0---2-------------------|------------------|
B|--------2-3-2-------3---|3-----------------|
G|0-----------------------|2-----------------|
D|--------2---------------|--------4-------0-|
A|------------------------|------------------|
E|------------------------|------------------|

E|3-------2---0---------|------------------------|
B|----------------3---1-|0---------------1-------|
G|----------------------|0-----------------------|
D|----------------------|--------4---2---0-------|
A|----------------------|--------------------3---|
E|3---------------------|------------------------|

E|----------------------|----------------------|
B|3-------1---0---------|----------------------|
G|----------------2---0-|----------------0-----|
D|----------------------|4---------------------|
A|2---------------3-----|5-------3---2---0-----|
E|----------------------|--------------------3-|

E|------------------------|----------------------|
B|------------0---1-------|0-------0-------------|
G|2---0---2-----------2---|------------2---0-----|
D|----------------0-------|--------------------4-|
A|------------------------|----------------------|
E|2-----------------------|3---------------------|

E|0---------------------|----------------0------|5--0--2--3--0-|
B|--------0---2---3---0-|2----------------------|--------------|
G|----------------0-----|2---------------0------|---0-----2----|
D|2---------------------|--------2---4-------2--|4-------------|
A|----------------------|-----------------------|--------------|
E|----------------------|-----------------------|--------------|

E|2-----------------|0---2-----------------|------------------|
B|----------------3-|--------2-3-2-------3-|3-----------------|
G|--------2---------|0---------------------|2-----------------|
D|0-----------------|--------2-------------|--------4-------0-|
A|--------4-------2-|----------------------|------------------|
E|------------------|----------------------|------------------|

E|------------------------|------------------------|
B|3-------2---0-----------|------------------------|
G|----------------2---0---|----------------0-------|
D|0-----------------------|4-----------------------|
A|------------------------|5-------4---2---0-------|
E|------------------------|--------------------3---|

E|----------------------|------------------------|
B|------------0---1-----|0-------0---------------|
G|2---0---2-----------2-|------------2---0-------|
D|----------------0-----|--------------------4---|
A|----------------------|------------------------|
E|2---------------------|3-----------------------|

E|3-------2---0-----------|--------0---------|
B|----------------4---2---|0---------------4-|
G|----------------2-------|0-----------------|
D|2-----------------------|----------------4-|
A|------------------------|------------------|
E|------------------------|------------------|

E|3---2---2-3-2-------0---|0-----------------------|
B|--------4-------0-------|------------------------|
G|------------------------|--------0---------------|
D|2-----------------------|2-----------4---2---0---|
A|------------------------|------------------------|
E|------------------------|------------------------|

E|0---------------------|------------------------|
B|----3---1---0---------|------------------------|
G|----------------2---0-|----------------0-------|
D|--------0-------2-----|4-------4---2---0-------|
A|3---------------------|5-------------------3---|
E|----------------------|------------------------|

E|------------------------|0---------------2-|
B|3-------0---1---3---0---|------------------|
G|------------------------|------------------|
D|------------------------|------------------|
A|2---------------2-------|3-------3---2---0-|
E|--------3---------------|------------------|

E|3---2---0---------------|0----------------------|5--2-3-2--3-|
B|------------3---1---0---|----3---1---0----------|------------|
G|------------------------|----------------2---0--|------------|
D|------------------------|--------0-------2------|---0--------|
A|2---------------2-------|3----------------------|3-----------|
E|--------3---------------|-----------------------|------------|

E|------------------------|------------------------|
B|0-----------------------|3-------2---0-----------|
G|------------------------|----------------2---0---|
D|----------------0-------|0-----------------------|
A|--------2---------------|------------------------|
E|3-----------------------|------------------------|

E|----------------------|------------------------|
B|----------------------|------------0---1-------|
G|----------------0-----|2---0---2-----------2---|
D|4---------------------|----------------0-------|
A|5-------4---2---0-----|------------------------|
E|--------------------3-|2-----------------------|

E|------------------------|3-------2---0---------|
B|0-------0---------------|----------------4---2-|
G|------------2---0-------|----------------2-----|
D|--------------------4---|2---------------------|
A|------------------------|----------------------|
E|3-----------------------|----------------------|

E|--------0---------------|3---2---2-3-2-------0---|
B|0---------------4-------|--------4-------0-------|
G|0-----------------------|------------------------|
D|----------------4-------|2-----------------------|
A|------------------------|------------------------|
E|------------------------|------------------------|

E|0---------------------|0-----------------------|
B|----------------------|----3---1---0-----------|
G|--------0-------------|----------------2---0---|
D|2-----------4---2---0-|--------0-------2-------|
A|----------------------|3-----------------------|
E|----------------------|------------------------|

E|------------------------|----------------------|
B|------------------------|3-------0---1---3---0-|
G|----------------0-------|----------------------|
D|4-------4---2---0-------|----------------------|
A|5-------------------3---|2---------------2-----|
E|------------------------|--------3-------------|

E|0---------------2-------|3---2---0---------------|
B|------------------------|------------3---1---0---|
G|------------------------|------------------------|
D|------------------------|------------------------|
A|3-------3---2---0-------|2---------------2-------|
E|------------------------|--------3---------------|

E|0---------------------|5-------2-3-2---3-------|--|
B|----3---1---0---------|------------------------|0-|
G|----------------2---0-|------------------------|--|
D|--------0-------2-----|--------0---------------|--|
A|3---------------------|3-----------------------|--|
E|----------------------|------------------------|3-|
Добавлено: 16.01.2014
http://primanota.ru/handel-george-frideric/vozdux-v-bb-chords.htm
Привет, Гость.
Предлагаем пройти революционный курс по гитаре.
Подарок от PrimaNota.Ru, забирай!