PrimaNota.ru - самый крупный в мире бесплатный архив песенных текстов, аккордов, табулатур и нот


Hand Of Mercy - Mr Nasty Time - таба, видео

Регистрация Запомнить меня
Войти через:  Facebook Google Twitter Vk Yandex Mail.ru

Hand Of Mercy - Mr Nasty Time - таба, видео

Печатать
Просмотров: 103
http://www.myspace.com/handofmercy
http://www.facebook.com/pages/Hand-Of-Mercy/41230876125
http://www.youtube.com/watch?v=K3-poHaLmlU

[Mr. Nasty Time]
[The Fallout]
[Hand Of Mercy]

Tuning: BF#BEG#C# (Drop B / 1.5 Steps Down From Drop D)
joshuaoliveira@hotmail.com

As Requested By: JonoFtw

[Riff 1, Guitar 1 & 2] - [00:00] - [00:12]
- ------------------------------------------------------------------|
- ------------------------------------------------------------------|
- ------------------------------------------------------------------|
- -7-7---5---2---3\----------------7-7---5---2---8---8-/10-7--7-7---|
- -8-8---7---3---5\--0-0-0-0-0-0-0-8-8---7---3---10--10/12-8--8-8---|
- -----0---0---0-----0-0-0-0-0-0-0-----0---0---0------------------0-|
PM     .   .   .     .............     .   .   .                  .
-
- ------------------------------------------------------------------|
- ------------------------------------------------------------------|
- ------------------------------------------------------------------|
- ------------------------------------------------------------------|
- -------------------0-0-0-0-0-0-0----------------------------------|
- -------------------0-0-0-0-0-0-0----------------------------------|
PM                   .............


- ------------------------------------------------------------------|
- ------------------------------------------------------------------|
- ------------------------------------------------------------------|
- -7-7---5---2---3\----------------7-7---5---2---8---8-/10-7--7-7---|
- -8-8---7---3---5\--0-0---0-0---0-8-8---7---3---10--10/12-8--8-8---|
- -----0---0---0-----0-0---0-0---0-----0---0---0------------------0-|
PM     .   .   .     .............     .   .   .                  .
-
- ------------------------------------------------------------------|
- ------------------------------------------------------------------|
- ------------------------------------------------------------------|
- ------------------------------------------------------------------|
- -------------------0-0---0-0---0----------------------------------|
- -------------------0-0---0-0---0----------------------------------|
PM                   .............

[Riff 1, Guitar 1] - [00:12] - [00:36] - [2x]

----------------------------------------------------------------------------

[Riff 2] - [00:36] - [00:37]
- ---------------|
- ---------------|
- ---------------|
- -7-7---5---2---|
- -8-8---7---3---|
- -----0---0---0-|
PM     .   .   .

----------------------------------------------------------------------------

[Riff 3] - [00:37] - [01:01-----------------------------------------| - [4x]
- ------------------------------------------------------------------|
- ------------------------------------------------------------------|
- ------------------------------------------------------------------|
- ------------------------------------------------------------------|
- -5---------------5---------------5---------------000-000-000-000--|
- ---3-1-0---0-0-0---3-1-4---4-4-4---3-1-0---0-0-0-000-000-000-000--|
PM                                                 ...............

----------------------------------------------------------------------------

[Riff 1, Guitar 1] - [01:01] - [01:25] - [2x]

----------------------------------------------------------------------------

[Riff 4, Guitar 1 & 2] - [01:25] - [01:43---------------------------| - [3x]
- ------------------------------------------------------------------|
- ------------------------------------------------------------------|
- ------------------------------------------------------------------|
- ------------------------------------------------------------------|
- -000-000-000-000-----------------000-000-000-000---7-----8-7------|
- -000-000-000-000-1---0-1---0-1---000-000-000-000-8---8-10----10\--|
PM ...............     .     .     ...............
-
- -----------------------------------------------------------------|
- -----------------------------------------------------------------|
- -----------------------------------------------------------------|
- -----------------------------------------------------------------|
- -000-000-000-000-----------------000-000-000-000-----------------|
- -000-000-000-000-----------------000-000-000-000-----------------|
PM ...............                 ...............

[Riff 5] - [01:43] - [01:55-----------------------------------------| - [4x]
- ------------------------------------------------------------------|
- ------------------------------------------------------------------|
- ------------------------------------------------------------------|
- ------------------------------------------------------------------|
- -000-000-000-000-----------------000-000-000-000------------------|
- -000-000-000-000-----------------000-000-000-000------------------|
PM ...............                 ...............

right before the chorus play the end of riff 4, guitar 1.

----------------------------------------------------------------------------

[Riff 6a] - [01:55] - [02:18-----------------------------------------| - [2x]
- -------------------------------------------------------------------|
- -------------------------------------------------------------------|
- -------------------------------------------------------------------|
- -7---7-7---7-7-7---7-7-7---7-7-7-8---8-8-8-8-8-8-8-8-8-8-8-8-8-8---|
- -5---5-5---5-5-5---5-5-5---5-5-5-10--1010101010101010101010101010--|
- -------------------------------------------------------------------|

- ------------------------------------------------------------------|
- ------------------------------------------------------------------|
- ------------------------------------------------------------------|
- -8---8-8---8-8-8---8-8-8---8-8-8-8---8-8-8-8---8---8---8---8-8-8--|
- -8---8-8---8-8-8---8-8-8---8-8-8-8---8-8-8-8---8---8---8---8-8-8--|
- -8---8-8---8-8-8---8-8-8---8-8-8-8---8-8-8-8---8---8---8---8-8-8--|


[Riff 6b] - [01:55] - [02:18-----------------------------------------| - [2x]
- -------------------------------------------------------------------|
- -------------------------------------------------------------------|
- -17--1714--14--17--17171710--101017--1714--14--17--17191910--1010--|
- -x---x-x---x---x---x-x-x-x---x-x-x---x-x---x---x---x-x-x-x---x-x---|
- -15--1512--12--15--15-15-12--121215--1512--12--15--1517178---8-8---|
- -------------------------------------------------------------------|

- ------------------------------------------------------------------|
- ------------------------------------------------------------------|
- -17--1714--14--17--171717101214-----------------------------------|
- -x---x-x---x---x---x-x-x-x-x-x------------------------------------|
- -15--1512--12--15--1515158-1012--8--7-8-10-8-7-----8-7-8-10-8-7---|
- -----------------------------------------------8-8--------------8-|
PM                                                 .

----------------------------------------------------------------------------

[Riff 7, Guitar 1 & 2] - [02:18] - [02:25]
- ------------------------------------------------------------------|
- ------------------------------------------------------------------|
- ------------------------------------------------------------------|
- -0~---------------------------------------------------------------|
- -0~---------------------------------------------------------------|
- -0~---------------------------------------------------------------|
-
- ------------------------------------------------------------------|
- ---------------------------------------------[7~]-----------------|
- ---------------------------------[7~]-----------------------------|
- ---------------------------------------[7~]-----------------------|
- ------------------------------------------------------------------|
- ------------------------------------------------------------------|

----------------------------------------------------------------------------

[Riff 8] - [02:25] - [02:38-----------------------------------------| - [2x]
- ------------------------------------------------------------------|
- ------------------------------------------------------------------|
- ------------------------------------------------------------------|
- -------------[5]-------------[5]-------------[5]------------------|
- ---------0-0-------------0-0-------------0-0-----000-000-000-000--|
- -1p0-0-0-0-0-----1p0-0-0-0-0-----1p0-0-0-0-0-----000-000-000-000--|
PM         ...             ...             ...     ...............

[Riff 9] - [02:38] - [02:53-----------------------------------------| - [2x]
- ------------------------------------------------------------------|
- ------------------------------------------------------------------|
- ------------------------------------------------------------------|
- ------------------------------------------------------------------|
- -------------------------------------------------000-000-000-000--|
- -1p0-0-0---------1p0-0-0---------1p0-0-0---------000-000-000-000--|
PM                                                 ...............

----------------------------------------------------------------------------

[Symbols]

PM... Palme Mute notes with (...) under them
h     Hammer On
p     Pull Off
[ ]   Natural Harmonic
~     Let Ring
x     Dead Note
/     Slide Up
\     Slide Down

:)
Добавлено: 08.04.2012
Вам также может быть интересно:
Другие материалы по этой песне:

Страница создана 08.04.2012
http://primanota.ru/hand-of-mercy/mr-nasty-time-chords.htm
Привет, Гость.
Предлагаем пройти революционный курс по гитаре.
Подарок от PrimaNota.Ru, забирай!