PrimaNota.ru - самый крупный в мире бесплатный архив песенных текстов, аккордов, табулатур и нот


Hammock - Frailty For The Dearly Departed - таба, видео

Регистрация Запомнить меня
Войти через:  Facebook Google Twitter Vk Yandex Mail.ru

Hammock - Frailty For The Dearly Departed - таба, видео

Печатать
Просмотров: 248
Уроки эстрадного вокала в Санкт-Петербурге
Hey! Hammock is easily my favorite band of all time; this song is incredible and I 
found it very easy to tab. It's mainly played on the piano so this is my best shot 
at transferring it to a guitar. 

Their music is fantastic and Departure Songs is very well written. If you have the 
money, I'd highly recommend buying their music; it's going towards two great 
musicians who write incredible music.

As with any Hammock song, it's accompanied by beautiful reverbs and delays. I have 
my guitar going into an RE-20, then onto a Strymon Timeline. Both are great pedals that I'd recommend.

Here goes:

e|--1---0------1---0-------0---1---0----------0--------------|
B|--1---1------1---1---3---1---1---1------3-----------3-----o|
G|---------------------0---------------------------5---------|  Strings and e-bow start on 3rd repeat; 
D|-----------------------------------------------------------|  note: the strings could easily
A|----------------------------------------------------------o|
E|-----------------------------------------------------------|x5 be done with a volume swell.

e|--1---0------1---0-------0---3------------------------1---0-------0---3------------------|
B|--1---1------1---1---3---------------1----------------1---1---3---------------1---------o|
G|---------------------------------0--------(0---2)--------------------------0-------------|
D|-----------------------------------------------------------------------------------------|
A|----------------------------------------------------------------------------------------o|
E|-----------------------------------------------------------------------------------------|x2

e|--0-----------1---0---0------0-------------------0---0-----------|
B|--1---3---3---1---1---1------1---3---3-------3---1---1----------o|
G|------0---0----------------------0---0-------0-------------------|   
D|-----------------------------------------------------------------|  Just the guitar (really,
A|----------------------------------------------------------------o|  piano) this time. 
E|-----------------------------------------------------------------|x4 

A little break, then

e|--1---0------1---0-------0---1---0----------0--------------|
B|--1---1------1---1---3---1---1---1------3-----------3-----o|
G|---------------------0---------------------------5---------|    Until end of song
D|-----------------------------------------------------------|
A|----------------------------------------------------------o|
E|-----------------------------------------------------------|x6 

If you have any problems or questions (or even something nice to say?),
e-mail me at ianpatrickcunningham@gmail.com

Thank you! This is my first tab; hope you enjoyed it!
Добавлено: 30.10.2013
Вам также может быть интересно:
Другие материалы по этой песне:
  • Аккорды и текст

Страница создана 30.10.2013
http://primanota.ru/hammock/frailty-for-the-dearly-departed-chords.htm
Привет, Гость.
Предлагаем пройти революционный курс по гитаре.
Подарок от PrimaNota.Ru, забирай!