PrimaNota.ru - самый крупный в мире бесплатный архив песенных текстов, аккордов, табулатур и нот


Hammers Of Misfortune - The Bastard Sapling - таба, видео

Регистрация Запомнить меня
Войти через:  Facebook Google Twitter Vk Yandex Mail.ru

Hammers Of Misfortune - The Bastard Sapling - таба, видео

Печатать
Просмотров: 94
The bastard sapling

As recorded by Hammers of misfortune

(From the 2001 The Bastard)

Transcribed by ScreamOfSilence

Tuning: (E A D G B E)



Acoustic part is play with those chords.



G         D        Bb  G  D


and the final with


|--------------------------------------------------------------------|
|-4-3-1--------------------------------------------------------------|
|-------3-2-3--------------------------------------------------------|
|--------------------------------------------------------------------|
|--------------------------------------------------------------------|
|--------------------------------------------------------------------|



|------------------------------------------------------------------------|
|------------------------------------------------------------------------|
|------------------------------------------------------------------------|
|-------3------------------------------------5-4-5-----------------------|
|---5-6---6-5---5-4-6-5-3-----3--------6---5-----------------------------|
|-3-----------6-----------6-5---6-5-2----6-------------------------------|


|------------------------------------------------------------------------|
|-------11-10-11---10---10---11----------------11------------------------|
|----12---------11---------------12--12--12-10---10--14--14--15--14--15--|
|-12-----------------12----10--8---13--12--------------13--13--16--16----|
|------------------------------------------------------------------------|
|------------------------------------------------------------------------|





|----------------------------------------------------------------------|
|----------------------------------------------------------------------|
|----------------------------------------------------------------------|
|-5-------5---------7--------------7---------------7-------------------|
|-5-------5---------5--------------5-8-----5-------5---6-5-3~----------|
|-3----33-3----3333----55-5~-—6-5-3--6--66-3--3333------------6-5-6----|


|------------------------------------------------------------------------|
|------------------------------------------------------------------------|
|------------------------------------------------------------------------|
|-------3------------------------------------5-4-5-----------------------|
|---5-6---6-5---5-4-6-5-3-----3--------6---5-----------------------------|
|-3-----------6-----------6-5---6-5-2----6-------------------------------|

|------------------------------------------------------------------------|
|-------11-10-11---10---10---11----------------11------------------------|
|----12---------11---------------12--12--12-10---10--14--14--15--14--15--|
|-12-----------------12----10--8---13--12--------------13--13--16--16----|
|------------------------------------------------------------------------|
|------------------------------------------------------------------------|
Добавлено: 02.08.2013
Другие материалы по этой песне:
  • Аккорды и текст

Страница создана 02.08.2013
http://primanota.ru/hammers-of-misfortune/the-bastard-sapling-chords.htm
Привет, Гость.
Предлагаем пройти революционный курс по гитаре.
Подарок от PrimaNota.Ru, забирай!