PrimaNota.ru - самый крупный в мире бесплатный архив песенных текстов, аккордов, табулатур и нот


Hammerhead - Tuffskins - бас-таба, видео

Регистрация Запомнить меня
Войти через:  Facebook Google Twitter Vk Yandex Mail.ru

Hammerhead - Tuffskins - бас-таба, видео

Печатать
Просмотров: 80
Artist - Hammerhead
Album - Etheral Killer
Song - Tuffskins
Year - 1993
Bassist - Paul Erickson
Tabber - Alowishus
Date - 21/9/2012

This song kicks absolute ass. The guitar in it is crazy - i doubt i will ever tab it as
half the song is just feedback! I'd recommend a listen if you haven't heard it! The song
is in standard tuning. The bass on the record is played with a heavy distortion or fuzz 
so definitely stick it on! Enjoy!

Intro and Verse

G|-----------------|-----------------|-----------------|-----------------|
D|-----------------|-----------------|-----------------|-----------------|
A|---------7-7-7-7-|-5-5-5-5-6-6-6-6-|-----------------|-----------------|
E|-0-0-0-0---------|-----------------|-5-5-5-5-6-6-6-6-|-8-8-8-8-1-1-1-1-|

Chorus


G|-----------------|-----------------|
D|-----------------|---------3-3-3-3-|
A|-----------------|-3-3-3-3---------|
E|-5-5-5-5-5-5-5-5-|-----------------|

Post-Chorus

G|-----------------|-----------------|-----------------|-----------------|
D|-----------------|-----------------|-----------------|-----------------|
A|-----------------|-----------------|-----------------|-8-8-8-8-8-8-8-8-|
E|-5-5-5-5-5-5-5-5-|-7-7-7-7-7-7-7-7-|-8-8-8-8-8-8-8-8-|-----------------|

G|-----------------|-----------------|-----------------|-----------------|
D|-----------------|-----------------|-----------------|-----------------|
A|-----------------|-----------------|-8-8-8-8-8-8-8-8-|-8-8-8-8-8-8-8-8-|
E|-5-5-5-5-5-5-5-5-|-7-7-7-7-7-7-7-7-|-----------------|-----------------|

G|-----------------|
D|-----------------|
A|-----------------|
E|-0---------------|


Bridge/Guitar Solo (if you could call it a solo). After letting the E ring out from the
post-chorus there is basically a few bars of letting the note decay then this comes in.
It's basically the main riff (intro/verse) but played up an octave.

G|-9-9-9-9-7-7-7-7-|-8-8-8-8---------|---------------------|
D|-----------------|---------7-7-7-7-|-8-8-8-8-10-10-10-10-|
A|-----------------|-----------------|---------------------|
E|-----------------|-----------------|---------------------|

G|-----------------|
D|-----------------|
A|-8-8-8-8-7-7-7-7-|
E|-----------------|

Then Sanders shouts GET 'EM! and the "solo" continues but the bass plays the verse part.
G|-----------------|-----------------|-----------------|-----------------|
D|-----------------|-----------------|-----------------|-----------------|
A|---------7-7-7-7-|-5-5-5-5-6-6-6-6-|-----------------|-----------------|
E|-0-0-0-0---------|-----------------|-5-5-5-5-6-6-6-6-|-8-8-8-8-1-1-1-1-|

This then segues into the verse, playing the same riff.

The chorus and post-chorus is then played again and that's the end!
Добавлено: 13.09.2013
Вам также может быть интересно:
Другие материалы по этой песне:
  • Аккорды и текст

Страница создана 13.09.2013
http://primanota.ru/hammerhead/tuffskins-chords.htm
Привет, Гость.
Предлагаем пройти революционный курс по гитаре.
Подарок от PrimaNota.Ru, забирай!