PrimaNota.ru - самый крупный в мире бесплатный архив песенных текстов, аккордов, табулатур и нот


Hammerhead - Double Negative - таба, видео

Регистрация Запомнить меня
Войти через:  Facebook Google Twitter Vk Yandex Mail.ru

Hammerhead - Double Negative - таба, видео

Печатать
Просмотров: 66
Artist - Hammerhead
Album - Into the Vortex
Song - Double Negative
Year - 1994
Guitarist - Paul Sanders
Tabber - Alowishus
Date - 20/9/2012
Website: http://amphetaminereptile.com/disco/lpfull.html

This tab probably isn't perfect though the basis of the song is really all here. Sanders
uses some crazy extended chords or something. Really underrated band though. It's a
shame there are not any other tabs! (hint hint!). Song is in Drop D, it isn't 
particularly hard - <5> denotes harmonics. Enjoy!

Intro

e|-------------------------|
B|-------------------------|
G|-------------------------|
D|-10-10-10-10-10-10-10-10-|
A|-8--8--8--8--8--8--8--8--|
D|-------------------------|

e|------------------------------------------------------------------|
B|------------------------------------------------------------------|
G|------------------------------------------------------------------|
D|-0-------------------3-3-3-3-3-3-3-3--2--2--2-2-2-3-3-3-3-3-3-3-3-|
A|-0--<5>-<5>-<5>-<5>--3-3-3-3-3-3-3-3--2--2--2-2-2-3-3-3-3-3-3-3-3-|
D|-0-------------------3-3-3-3-3-3-3-3--2--2--2-2-2-3-3-3-3-3-3-3-3-|


Verse 1

e|------------------------------------------------------------------|
B|------------------------------------------------------------------|
G|------------------------------------------------------------------|
D|-0-------------------3-3-3-3-3-3-3-3--2--2--2-2-2-3-3-3-3-3-3-3-3-|
A|-0--<5>-<5>-<5>-<5>--3-3-3-3-3-3-3-3--2--2--2-2-2-3-3-3-3-3-3-3-3-|
D|-0-------------------3-3-3-3-3-3-3-3--2--2--2-2-2-3-3-3-3-3-3-3-3-|

Kept on going down...
e|-------------------------|-------------------------|
B|-------------------------|-------------------------|
G|-------------------------|-------------------------|
D|-6-6-6-6-6-6-6-6-6-6-6-6-|-0-----------------------|
A|-4-4-4-4-4-4-4-4-4-4-4-4-|-0-----------------------|
D|-------------------------|-0-----------------------|
                             Let Ring...

Pre-Chorus

e|-------------------------|
B|-------------------------|
G|-----10------------------|
D|-12------10-----8--------|
A|---------------(6)-------|
D|-------------------------|

e|-------------------------|-------------------------|
B|-------------------------|-------------------------|
G|-------------------------|-------------------------|
D|-6-6-6-6-6-6-6-6-6-6-6-6-|-0-----------------------|
A|-4-4-4-4-4-4-4-4-4-4-4-4-|-0-----------------------|
D|-------------------------|-0-----------------------|
 pm........................  Let ring...

e|-------------------------|
B|---------13--------------|
G|-----10------------------|
D|-12-------------8--------|
A|---------------(6)-------|
D|-------------------------|

e|-------------------------|-------------------------|
B|-------------------------|-------------------------|
G|-------------------------|-------------------------|
D|-6-6-6-6-6-6-6-6-6-6-6-6-|-0-----------------------|
A|-4-4-4-4-4-4-4-4-4-4-4-4-|-0-----------------------|
D|-------------------------|-0-----------------------|
 pm........................  Let ring...

e|---------------------------------|
B|---------------------------------|
G|---------------------------------|
D|-7-7-7-7-7-7-7-7-8-8-8-8-8-8-8-8-|
A|-5-5-5-5-5-5-5-5-6-6-6-6-6-6-6-6-|
D|---------------------------------|

e|-------------------------|-------------------------|
B|-------------------------|-------------------------|
G|-------------------------|-------------------------|
D|-6-6-6-6-6-6-6-6-6-6-6-6-|-0-----------------------|
A|-4-4-4-4-4-4-4-4-4-4-4-4-|-0-----------------------|
D|-------------------------|-0-----------------------|
 pm........................  Let ring...

e|---------------------------------|
B|---------------------------------|
G|---------------------------------|
D|-7-7-7-7-7-7-7-7-8-8-8-8-8-8-8-8-|
A|-5-5-5-5-5-5-5-5-6-6-6-6-6-6-6-6-|
D|---------------------------------|

e|-------------------------|-------------------------|
B|-------------------------|-------------------------|
G|-------------------------|-------------------------|
D|-6-6-6-6-6-6-6-6-6-6-6-6-|-0-----------------------|
A|-4-4-4-4-4-4-4-4-4-4-4-4-|-0-----------------------|
D|-------------------------|-0-----------------------|
 pm........................  Let ring...

Wahhhhhhhhhhhhhhhhhhhhhhhhhh
e|-------------------------|
B|-------------------------|
G|-------------------------|
D|-6-6-6-6-6-6-6-6-6-6-6-6-|
A|-4-4-4-4-4-4-4-4-4-4-4-4-|
D|-------------------------|

I can't believe....
e|-------------------------|
B|-------------------------|
G|-------------------------|
D|-5-5-5-5-5-5-5-5-5-5-5-5-|
A|-5-5-5-5-5-5-5-5-5-5-5-5-|
D|-5-5-5-5-5-5-5-5-5-5-5-5-|

Then back to:

e|------------------------------------------------------------------|
B|------------------------------------------------------------------|
G|------------------------------------------------------------------|
D|-0-------------------3-3-3-3-3-3-3-3--2--2--2-2-2-3-3-3-3-3-3-3-3-|
A|-0--<5>-<5>-<5>-<5>--3-3-3-3-3-3-3-3--2--2--2-2-2-3-3-3-3-3-3-3-3-|
D|-0-------------------3-3-3-3-3-3-3-3--2--2--2-2-2-3-3-3-3-3-3-3-3-|

Verse 2

e|------------------------------------------------------------------|
B|------------------------------------------------------------------|
G|------------------------------------------------------------------|
D|-0-------------------3-3-3-3-3-3-3-3--2--2--2-2-2-3-3-3-3-3-3-3-3-|
A|-0--<5>-<5>-<5>-<5>--3-3-3-3-3-3-3-3--2--2--2-2-2-3-3-3-3-3-3-3-3-|
D|-0-------------------3-3-3-3-3-3-3-3--2--2--2-2-2-3-3-3-3-3-3-3-3-|

e|-------------------------|
B|-------------------------|
G|-------------------------|
D|-6-6-6-6-6-6-6-6-6-6-6-6-|
A|-4-4-4-4-4-4-4-4-4-4-4-4-|
D|-------------------------|
                             Let Ring...

Little arms...

e|-------------------------|-------------------------|
B|-------------------------|-------------------------|
G|-------------------------|-------------------------|
D|-0-----------------------|-6-6-6-6-6-6-6-6-6-6-6-6-|
A|-0-----------------------|-4-4-4-4-4-4-4-4-4-4-4-4-|
D|-0-----------------------|-------------------------|

There's a curse on you...
e|-------------------------|
B|-------------------------|
G|-------------------------|
D|-5-5-5-5-5-5-5-5-5-5-5-5-|
A|-5-5-5-5-5-5-5-5-5-5-5-5-|
D|-5-5-5-5-5-5-5-5-5-5-5-5-|

Blood brother...
e|-------------------------|
B|-------------------------|
G|-------------------------|
D|-10-10-10-10-10-10-10-10-|
A|-8--8--8--8--8--8--8--8--|
D|-------------------------|

You're next!
e|-------------------------------------|
B|-------------------------------------|
G|-------------------------------------|
D|-10-12-12-12-1-1--8-8--7-7-7-7-7-7-7-|
A|-------------1-1--8-8--7-7-7-7-7-7-7-|
D|-------------1-1--8-8--7-7-7-7-7-7-7-|

e|-------------------------|-------------------------|
B|-------------------------|-------------------------|
G|-------------------------|-------------------------|
D|-6-6-6-6-6-6-6-6-6-6-6-6-|-0-----------------------|
A|-4-4-4-4-4-4-4-4-4-4-4-4-|-0-----------------------|
D|-------------------------|-0-----------------------|

End
Добавлено: 06.09.2013
Вам также может быть интересно:
Другие материалы по этой песне:
  • Аккорды и текст

Страница создана 06.09.2013
http://primanota.ru/hammerhead/double-negative-chords.htm
Привет, Гость.
Предлагаем пройти революционный курс по гитаре.
Подарок от PrimaNota.Ru, забирай!