PrimaNota.ru - самый крупный в мире бесплатный архив песенных текстов, аккордов, табулатур и нот


Hammerfall - Secrets - текст песни, таба, бас-таба, видео

Регистрация Запомнить меня
Войти через:  Facebook Google Twitter Vk Yandex Mail.ru

Hammerfall - Secrets - текст песни, таба, бас-таба, видео

Печатать
Просмотров: 173
Авторы музыки: Oscar Dronjak, Joacim Cans
Авторы текста: Oscar Dronjak, Joacim Cans
Artist: Hammerfall
Song: Secrets
Album: Chapter V: Unbent, Unbowed, Unbroken
Tuning: Half Step Down Eb Ab Db Gb Bb Eb
Tabbed by drawnacrol

Watch my cover video for fingering/phrasing etc:
http://www.youtube.com/watch?v=iWLy1s3ZAaI

|------------------______________________------------------------------|
|----------------/------------------------\----------------------------|
|---(2.75)-----/----------------------------\--------------------------|
|------------/-Raise--------------------------\---Dive-----------------|
|----------/------------------------------------\----------------------|
|----------------------------------------------------------------------|

|--14--12--------------------------------------------------------------|
|----------15--14--12------12--14--15--14--12------14--12--------------|
|----------------------14----------------------14----------14--13------|
|----------------------------------------------------------------------|
|----------------------------------------------------------------------|
|----------------------------------------------------------------------|

|--21--19--17----------------------17----------------------------------|
|--------------21--19--17--19--21------21--19--17--21--19--17----------|
|--------------------------------------------------------------19------|
|----------------------------------------------------------------------|
|----------------------------------------------------------------------|
|----------------------------------------------------------------------|

|--10p7---------14p10-----------19p14-----------22p19------------------|
|--------7-------------12-------------15---------------19--------------|
|-----------7--------------11-------------16---------------19----------|
|----------------------------------------------------------------------|
|----------------------------------------------------------------------|
|----------------------------------------------------------------------|

|--22b24r22--(22)b24r22------22--21--19~~---\--------------------------|
|----------------------------------------------------------------------|
|----------------------------------------------------------------------|
|----------------------------------------------------------------------|
|----------------------------------------------------------------------|
|----------------------------------------------------------------------|

|--14--12--------------------------------------------------------------|
|----------15--14--12------12--14--15--14--12------14--12--------------|
|----------------------14----------------------14----------14--13------|
|----------------------------------------------------------------------|
|----------------------------------------------------------------------|
|----------------------------------------------------------------------|

|--21--19--17----------------------17----------------------------------|
|--------------21--19--17--19--21------21--19--17--21--19--17----------|
|--------------------------------------------------------------19------|
|----------------------------------------------------------------------|
|----------------------------------------------------------------------|
|----------------------------------------------------------------------|

|----------------------------------------------------------------------|
|--------12--14--15--14b15r14--12--14b15---14b15--14b15--14b15---------|
|--12------------------------------------------------------------------|
|----------------------------------------------------------------------|
|----------------------------------------------------------------------|
|----------------------------------------------------------------------|

|----------------------------------------------------------------------|
|--pb15r14---12--------------------------------------------------------|
|----------------------------------------------------------------------|
|----------------------------------------------------------------------|
|----------------------------------------------------------------------|
|----------------------------------------------------------------------|

|----------------------------------------------------------------------|
|-7-0-0-0-7-0-0-0-8-0-0-0-5-0-0-0-0-7-0-0-0-7-0-0-0-8-0-0-0-10-0-0-0-0-|
|----------------------------------------------------------------------|
|----------------------------------------------------------------------|
|----------------------------------------------------------------------|
|----------------------------------------------------------------------|

|----------------------------------------------------------------------|
|-7-0-0-0-7-0-0-0-8-0-0-0-5-0-0-0-0-7-0-0-0-7-0-0-0-8-0-0-0-10-0-0-0-0-|
|----------------------------------------------------------------------|
|----------------------------------------------------------------------|
|----------------------------------------------------------------------|
|----------------------------------------------------------------------|

|----------------------------------------------------------------------|
|---------------<-------Light Pinch Harmonics--------------->----------|
|--6~~----------6--6--6--6--6--6--6--6--6--6--7~~-----6--7--6--4~~~-\--|
|----------------------------------------------------------------------|
|----------------------------------------------------------------------|
|----------------------------------------------------------------------|

|---------------17--16--14---17--19--21---19---21--22~~---22--22--22---|
|--14~-----14----------------------------------------------------------|
|----------------------------------------------------------------------|
|----------------------------------------------------------------------|
|----------------------------------------------------------------------|
|----------------------------------------------------------------------|

|--21--19--22---17--19--21----19--17-----------------------------------|
|----------------------------------------------------------------------|
|----------------------------------------------------------------------|
|----------------------------------------------------------------------|
|----------------------------------------------------------------------|
|----------------------------------------------------------------------|

|-7-0-0-0-7-0-0-0-8-0-0-0-5-0-0-0-0-7-0-0-0-7-0-0-0-8-0-0-0-10-0-0-0-0-|
|----------------------------------------------------------------------|
|----------------------------------------------------------------------|
|----------------------------------------------------------------------|
|----------------------------------------------------------------------|
|----------------------------------------------------------------------|

|-7-0-0-0-7-0-0-0-8-0-0-0-5-0-0-0-0-7-0-0-0-7-0-0-0-8-0-0-0-10-0-0-0-0-|
|----------------------------------------------------------------------|
|----------------------------------------------------------------------|
|----------------------------------------------------------------------|
|----------------------------------------------------------------------|
|----------------------------------------------------------------------|

|----------------------------------------------------------------------|
|--11--13--15--13--11--13--15--13--11--13--15--11----------------------|
|----------------------------------------------------------------------|
|----------------------------------------------------------------------|
|----------------------------------------------------------------------|
|----------------------------------------------------------------------|

|----------------------------------------------------------------------|
|--10--11--13--11--10--11--13--11--10--11--13--10----------------------|
|----------------------------------------------------------------------|
|----------------------------------------------------------------------|
|----------------------------------------------------------------------|
|----------------------------------------------------------------------|

|----------------------------------------------------------------------|
|--8--10--11--10--8--10--11--10--8--10--11--8------6--8--9--10---------|
|----------------------------------------------------------------------|
|----------------------------------------------------------------------|
|----------------------------------------------------------------------|
|----------------------------------------------------------------------|

|----------------------------------------------------------------------|
|--11--13--15--13--11--13--15--13--11--13--15--11----------------------|
|----------------------------------------------------------------------|
|----------------------------------------------------------------------|
|----------------------------------------------------------------------|
|----------------------------------------------------------------------|

|----------------------------------------------------------------------|
|--10--11--13--11--10--11--13--11--10--11--13--10----------------------|
|----------------------------------------------------------------------|
|----------------------------------------------------------------------|
|----------------------------------------------------------------------|
|----------------------------------------------------------------------|

|----------------------------------------------------------------------|
|--8--10--11--10--8--10--11--10--8--10--11--8--------------------------|
|----------------------------------------------------------------------|
|----------------------------------------------------------------------|
|----------------------------------------------------------------------|
|----------------------------------------------------------------------|

|----------------------------------------------------------------------|
|--6--6--6--6--8--8--8--8--9--9--9--9--10--10--10--10------------------|
|----------------------------------------------------------------------|
|----------------------------------------------------------------------|
|----------------------------------------------------------------------|
|----------------------------------------------------------------------|

|----------------------------------------------11----------------------|
|--11--13--15--13--11--13--15--13--11--13--15--------------------------|
|----------------------------------------------------------------------|
|----------------------------------------------------------------------|
|----------------------------------------------------------------------|
|----------------------------------------------------------------------|

|------------------------------------------10--------------------------|
|--10--11--13--11--10--11--13--11--10--11------13----------------------|
|----------------------------------------------------------------------|
|----------------------------------------------------------------------|
|----------------------------------------------------------------------|
|----------------------------------------------------------------------|

|-------------------------------------------8--------------------------|
|--8--10--11--10--8--10--11--10--8--10--11-----------------------------|
|----------------------------------------------------------------------|
|----------------------------------------------------------------------|
|----------------------------------------------------------------------|
|----------------------------------------------------------------------|

|----------------------------------------------------------------------|
|--6--6--6--6--8--8--8--8--9--9--9--9--10--10--10--10------------------|
|----------------------------------------------------------------------|
|----------------------------------------------------------------------|
|----------------------------------------------------------------------|
|----------------------------------------------------------------------|

|----------------------------------------------11----------------------|
|--11--13--15--13--11--13--15--13--11--13--15--------------------------|
|----------------------------------------------------------------------|
|----------------------------------------------------------------------|
|----------------------------------------------------------------------|
|----------------------------------------------------------------------|

|------------------------------------------10--------------------------|
|--10--11--13--11--10--11--13--11--10--11------13----------------------|
|----------------------------------------------------------------------|
|----------------------------------------------------------------------|
|----------------------------------------------------------------------|
|----------------------------------------------------------------------|

|---------------------------------------10--8--------------------------|
|--8--10--11--10--8--10--11--10--8--10----------6~~--------------------|
|----------------------------------------------------------------------|
|----------------------------------------------------------------------|
|----------------------------------------------------------------------|
|----------------------------------------------------------------------|

|----------------------------------------------------------------------|
|----------------------------------------------------------------------|
|----------------------------------------------------------------------|
|--9-----------9-----------10--7--9-----------9-----------10--7--9-----|
|--7--7-7-7-7--7--7-7-7-7--7---7--7--7-7-7-7--7--7-7-7-7--7---7--7-----|
|-----.-.-.-.-----.-.-.-.------------.-.-.-.-----.-.-.-.---------------|

|----------------------------------------------------------------------|
|----------------------------------------------------------------------|
|--------------------------------------------------------------PH------|
|--9-----------9-----------10--7--9-------------------------9--10\-----|
|--6--6-6-6-6--6--6-6-6-6--6---6--7--7-7-7-7-7-7--7--9--10-------------|
|-----.-.-.-.-----.-.-.-.------------.-.-.-.-.-.--.--.--.--------------|
Добавлено: 05.06.2012
Другие материалы по этой песне:

Страница создана 04.03.2012
http://primanota.ru/hammerfall/secrets-chords.htm
Привет, Гость.
Предлагаем пройти революционный курс по гитаре.
Подарок от PrimaNota.Ru, забирай!