PrimaNota.ru - самый крупный в мире бесплатный архив песенных текстов, аккордов, табулатур и нот


Hamlet - Imagin - таба, видео

Регистрация Запомнить меня
Войти через:  Facebook Google Twitter Vk Yandex Mail.ru

Hamlet - Imagin - таба, видео

Печатать
Просмотров: 105
*Hamlet - Imaginé*

Hecho por: Javier Lopez (the_black_dahlia_s_murder@hotmail.com)

28/11/07

/: Slide

... (puntos suspensivos):continua con la misma nota
                          repetidas veces.


Tuning: Drop D;

Gtr I  (D A D G B E) (altavoz derecho)
Gtr II (D A D G B E) (altavoz izquierdo)

  Intro Gtr I
|----------------------------------------------------------|
|----------------------------------------------------------|
|----------------------------------------------------------|
|--7-7-7-7-7-7-9-9-9-9-9-9/6-6-6-6-6-6-4-4-4-4-4-4...------|
|----------------------------------------------------------|
|----------------------------------------------------------|
|                                                          |
|----------------------------------------------------------|
|----------------------------------------------------------|
|----------------------------------------------------------|
|--7-7-7-7-7-7-9-9-9-9-11-11-11/6-6-6-6-6-6-4-4-4-4-4-4...-|
|----------------------------------------------------------|
|----------------------------------------------------------|
|
|
| Intro Gtr II
|----------------------------------------------------------|
|----------------------------------------------------------|
|----------------------------------------------------------|
|----------------x--------------x---------x----------------|
|--4-------------x-2------------x-0-------x-2--------------|
|--4-------------x-2------------x-0-------x-2--------------|X2



  Pre-estrofa Grt I II
|----------------------------------------------------------|
|----------------------------------------------------------|
|----------------------------------------------------------|
|----------------------------------------------------------|
|--4-----4-----4-----4-----0--0----------------------------|
|--4-----4-----4-----4-----0--0----------------------------|X4
                           ·  ·



  Estrofa Grt I II
|----------------------------------------------------------|
|----------------------------------------------------------|
|----------------------------------------------------------|
|----------------------------------------------------------|
|--4---------------2--------------0---------2--------------|
|--4---------------2--------------0---------2--------------|X2
   ·               ·              ·         ·


  Estribillo Grt I
|------------------------------------------------|
|------------------------------------------------|
|-----------------------------------------4--2/0-|---> estas 3 notas se 
|------------------------------------------------|     alternan en cada
|--0--------------x-4----------x-2---------------|     repetición 
|--0--------------x-4----------x-2---------------|X4   (una si otra no).
|                                                |
|                                                |
|  Estribillo Grt II                             |
|------------------------------------------------|
|------------------------------------------------|
|------------------------------------------------|
|------------------------------------------------|
|--0---------------4-----------2-----------------|
|--0---------------4-----------2-----------------|X4
                                                          
|  Post-Estribillo                               |        
|------------------------------------------------|       
|------------------------------------------------|        
|------------------------------------------------|        
|------------------------------------------------|     
|--4-----4-----4-----4-----0--0------------------|       
|--4-----4-----4-----4-----0--0------------------|X8     
                           ·  ·

  Gtr III
|-----------------|
|-----------------|
|----11-11-11...--|
|-----------------|
|-----------------|en las cuatro ÚLTIMAS veces
|-----------------|del Post-estribillo.



  Estrofa Grt I
|----------------------------------------------------------|
|----------------------------------------------------------|
|----------------------------------------------------------|
|----------------------------------------------------------|
|--4---------------2--------------0---------2--------------|
|--4---------------2--------------0---------2--------------|X1
|  ·               ·              ·         ·              |
|                                                          |
| Gtr I (Igual que la primera parte de la intro)           |
|----------------------------------------------------------|
|----------------------------------------------------------|
|----------------------------------------------------------|
|--7-7-7-7-7-7-9-9-9-9-9-9/6-6-6-6-6-6-4-4-4-4-4-4...------|
|----------------------------------------------------------|
|----------------------------------------------------------|X1
|                                                          |
|                                                          |
| Estrofa Grt II                                           |
|----------------------------------------------------------|
|----------------------------------------------------------|
|----------------------------------------------------------|
|----------------------------------------------------------|
|--4---------------2--------------0---------2--------------|
|--4---------------2--------------0---------2--------------|X2
   ·               ·              ·         ·


  Estribillo Grt I
|------------------------------------------------|
|------------------------------------------------|
|-----------------------------------------4--2/0-|---> estas 3 notas se 
|------------------------------------------------|     alternan en cada
|--0--------------x-4----------x-2---------------|     repetición 
|--0--------------x-4----------x-2---------------|X4   (una si otra no).
|                                                |
|                                                |
|  Estribillo Grt II                             |
|------------------------------------------------|
|------------------------------------------------|
|------------------------------------------------|
|------------------------------------------------|
|--0---------------4-----------2-----------------|
|--0---------------4-----------2-----------------|X4
                         


   Bridge Grt I II
|-------------------------------------|
|-------------------------------------|
|-------------------------------------|
|-------------------------------------|
|-1-----------------------------------|
|-1-----4-4-4-6-6-6-7-7-7-9-9-9-------|


   Gtr I
|-------------------------------------|
|-------------------------------------|
|-------------------------------------|
|--------2---------------2------------|
|-1--------------0--------------------|
|-1--------------0--------------------|X2
|                                     |
|                                     |
|  Gtr II                             |
|-------------------------------------|
|-------------------------------------|
|-------------------------------------|
|-------------------------------------|
|-1--------------0--------------------|
|-1--------------0--------------------|X2

   Grt I II
|-------------------------------------|
|-------------------------------------|
|-------------------------------------|
|-------------------------------------|
|-1-----------------------------------|
|-1-----4-4-4-6-6-6-7-7-7-9-9-9-------|

   Gtr I
|-------------------------------------|
|-------------------------------------|
|-------------------------------------|
|--------2------------2---------------|
|-1--------------0--------------------|
|-1--------------0--------------------|X2
|                                     |
|                                     |
|  Gtr II                             |
|-------------------------------------|
|-------------------------------------|
|-------------------------------------|
|-------------------------------------|
|-1--------------0--------------------|
|-1--------------0--------------------|X2


  Gtr I
|-------------------------------------|
|-------------------------------------|
|-------------------------------------|
|-------------------------------------|
|-------------------------------------|
|-0-0-0-0-0-0-0-0-0-000-0-------------|X2

  Gtr I II
|-------------------------------------|
|-------------------------------------|
|-------------------------------------|
|-------------------------------------|
|-------------------------------------|
|-0-0-0-0-0-0-0-0-0-000-0-------------|X2


  Gtr I II
|---------------------------|     |---------------|
|---------------------------|     |---------------|
|---------------------------|     |---------------|  <-----Palm mute  |*
|---------------------------|     |---------------|                   |*
|---------------------------|     |---------------|                   |*
|-2-0-0-220-0---------------|X3   |--2-0-0-4-2-0--|X1                 |*
  · · · ··· ·                        · · · · · ·                      |*
-------------------------------------------------------> todo X2      |*
                                                                      |*
  Gtr I II                                                            |*
|---------------------------|     |---------------|                   |*
|---------------------------|     |---------------|                   |*
|---------------------------|     |---------------| <--------AQUI NO! |*
|---------------------------|     |---------------|
|---------------------------|     |---------------|
|-2-0-0-220-0---------------|X3   |--2-0-0-4-2-0--|X1
-------------------------------------------------------> todo X2



  Estribillo Grt I
|------------------------------------------------|
|------------------------------------------------|
|-----------------------------------------4--2/0-|---> estas 3 notas se 
|------------------------------------------------|     alternan en cada
|--0--------------x-4----------x-2---------------|     repetición 
|--0--------------x-4----------x-2---------------|X4   (una si otra no).
|                                                |
|                                                |
|  Estribillo Grt II                             |
|------------------------------------------------|
|------------------------------------------------|
|------------------------------------------------|
|------------------------------------------------|
|--0---------------4-----------2-----------------|
|--0---------------4-----------2-----------------|X4

-------------------------------------------------------> todo X2

                                                   
|  Post-Estribillo                               |  
|------------------------------------------------| 
|------------------------------------------------|  
|------------------------------------------------|  
|------------------------------------------------| 
|--4-----4-----4-----4-----0--0------------------|   
|--4-----4-----4-----4-----0--0------------------|X8
                           ·  ·

  Gtr III
|-----------------|
|-----------------|
|----11-11-11...--|
|-----------------|
|-----------------|en las cuatro PRIMERAS veces
|-----------------|del Post-estribillo.

Yo creo que esta perfecta. Pero para asegurarme, votad la tablatura. Gracias.
Добавлено: 06.03.2012
Другие материалы по этой песне:
  • Аккорды и текст

Страница создана 06.03.2012
http://primanota.ru/hamlet/imagin-chords.htm
Привет, Гость.
Предлагаем пройти революционный курс по гитаре.
Подарок от PrimaNota.Ru, забирай!