PrimaNota.ru - самый крупный в мире бесплатный архив песенных текстов, аккордов, табулатур и нот


Halo - Its Your Decision - таба, видео

Регистрация Запомнить меня
Войти через:  Facebook Google Twitter Vk Yandex Mail.ru

Halo - Its Your Decision - таба, видео

Печатать
Просмотров: 130
		   From tberg@dax.cc.uakron.edu Tue Jan 23 16:51:57 1996


			     IT'S YOUR DECISION
				 by : Halo
			    Tabbed by : Tim Berg


Intro :         D5  C5 | Bb5  C5   (Repeat 4 times)

Chords :
  F/C           x3321x
  Eb7/Bb        xx532x
  F/A           x03211
  G/B           x20033
  C             x32010  (or x3555x)
  Gm            355333
  Dm            x57765
  Eb            x6888x
  Bb/D          x5333x

Tablature explanation :
  h - Hammer-on
  b - Bend
  \ - Slide
  p - Pull-off

Verse 1 :

You're living the good life, you've made it on your own
You've got everything you've ever wanted
You planned it all alone
You've climbed every ladder and opened every door
But there's a feeling deep inside you that's wanting so much more


Chorus :
F/C                       Eb7/Bb
Just take a look into the middle of your heart
	  F/A                 G/B             C
There's a place in there that only Christ can fill
Gm                        Dm
Take all your burdens and humbly lay them down
Eb            Bb/D            C
Move into the center of God's will
	     D5   C5  Bb5  C5
It's your decision


Verse 2:

You make choices everyday that effect your life
Some are good and some are bad
Some just get you by
Jesus stands at the door and wants to come in
But the way you choose to live your life is never up to Him

(Repeat Chorus)

Bridge :
C
God wills that none should perish
Eternal life He gives
He's given us a will to choose
If you will go to Him
It's your decision

Lead :

e------15b17-15---------------------|-10------------------------------
B---15-----------17-16b18--15-17----|----13-11--13-11-10--11p10-------
G--------------------------------17-|---------------------------12----
D-----------------------------------|---------------------------------
A-----------------------------------|---------------------------------
E-----------------------------------|---------------------------------

e---------------------------------------------------------------------
B-10------------------------------------------------------------------
G----12-10--12-10/9--10p9-----9---------------------------------------
D-------------------------12----12-10--12p10--------------------------
A--------------------------------------------12---------8--7----------
E------------------------------------------------10--8---------8------

NOTE : First part of lead scale is played in triplets.

Also, I haven't figured out the verses yet, but they don't seem to be
all that difficult.


     
Добавлено: 13.09.2013
Другие материалы по этой песне:
  • Аккорды и текст

Страница создана 13.09.2013
http://primanota.ru/halo/its-your-decision-chords.htm
Привет, Гость.
Предлагаем пройти революционный курс по гитаре.
Подарок от PrimaNota.Ru, забирай!