PrimaNota.ru - самый крупный в мире бесплатный архив песенных текстов, аккордов, табулатур и нот


Halo - Arrival - таба, видео

Регистрация Запомнить меня
Войти через:  Facebook Google Twitter Vk Yandex Mail.ru

Halo - Arrival - таба, видео

Печатать
Просмотров: 92
///Halo 4 OST: Arrival\\\
Tabbed by RayneShadow
   Guitar 1, 2 - E Standard Tuning (E A D G B E)
   Guitar 3, 4 - Drop C Tuning  (C G C F A D)
 ** TRANSCRIBED FROM 'KawlumPlaysGuitar' YouTube Channel, "Halo 4 'Arrival' Metal Guitar Cover" **
  https://www.youtube.com/watch?v=jFeLenKUy2E

Please email slowermrborat@live.com for any corrections you see need to be placed!
_____________________________________________________________________________________________

--0:36-1:12--
Gtr 1
E|-------------------------------------------||       
B|--12-8-12-8-13-8-13-8-12-8-12-8-10-8-10-8--||    
G|-------------------------------------------||4X 
D|-------------------------------------------||     
A|-------------------------------------------||      
E|-------------------------------------------||   
    
--0:54-1:12--
Gtr 2
E|----12--12-15-12-15-12--12--12-14-12-14-15-15-12-15-12-17-12-17-12---12---12-14-12-14-12--|
B|--12--12--------------12--12---------------------------------------12---12----------------|
G|------------------------------------------------------------------------------------------|
D|------------------------------------------------------------------------------------------|
A|------------------------------------------------------------------------------------------|
E|------------------------------------------------------------------------------------------|

--0:54-1:12--         --1:12-2:21--
Gtr 3, 4
D|------------------|------------------||
A|------------------|------------------||
F|------------------|------------------|| 
C|--4~~~-----0~~~---|--5~~~-----1~~~---||
G|--4~~~-----0~~~---|--5~~~-----1~~~---||
C|--4~~~-----0~~~---|--5~~~-----1~~~---||

--1:16-1:28--                             --1:28-2:39--
Gtr1                                                                       1-6           7-8
E|--------------------------------------||--------------------------------|------------|-------------||
B|------6-8-9-9~-11~-13-9-13-9-14~-11~--||--13-9-13-9-14-9-14-9-13-9-13-9-|-11-9-11-9--|--11-8-11-8--||
G|--/5~---------------------------------||--------------------------------|------------|-------------||
D|--------------------------------------||--------------------------------|------------|-------------||8X
A|--------------------------------------||--------------------------------|------------|-------------||
E|--------------------------------------||--------------------------------|------------|-------------||

--1:46-2:05--                        --2:05-2:21--
Gtr 4
D|---------------------------------||-----------------------------------|
A|---------------------------------||-----------------------------------|
F|---------------------------------||-/7-3-8~-/7-3-5~-/7~-8-10-12~-14~--|
C|---------------------------------||-----------------------------------|
G|--5~-------------------3-5~-6-6~-||-----------------------------------|
C|----8~-7~-5~-1~-5~-7-8~----------||-----------------------------------|

--2:21-2:39-
Gtr 2
E|-------||------|-----------16-13-16-13-16-11-16-11-15-11-15-11--||
B|--17^--||--18--|--13-18-13--------------------------------------||
G|-------||------|------------------------------------------------||2X
D|-1st---||-2nd- |------------------------------------------------||
A|-------||- + --|------------------------------------------------||
E|-------||--3rd-|------------------------------------------------||

--2:21-2:39--
Gtr 3, 4
D|--------------------------------||
A|--------------------------------||
F|--------------------------------||2X
C|--5~~~---13~~~---8~~~---12~~~---||
G|--5~~~---13~~~---8~~~---12~~~---||
C|--5~~~---13~~~---8~~~---12~~~---||

--2:39-2:56--
Gtr 1   
E|--10---10---13-10-13-10-13-8-13-8-12-8-12-8--||
B|-----10---10---------------------------------||
G|---------------------------------------------||2X
D|---------------------------------------------||
A|---------------------------------------------||
E|---------------------------------------------||

--2:39-2:56--
Gtr 2
E|-10-10------10-10-------13-13-10-10-13-13-10-10-13-13-8-8-13-13-8-8-12-12-8-8-12-12-8-8--||
B|-------10-10------10-10------------------------------------------------------------------||
G|-----------------------------------------------------------------------------------------||2X
D|-----------------------------------------------------------------------------------------||
A|-----------------------------------------------------------------------------------------||
E|-----------------------------------------------------------------------------------------||

--2:39-3:48--
Gtr 3, 4
D|-------------------------------||
A|-------------------------------||
F|-------------------------------||8X
C|--2~~~---10~~~---5~~~---9~~~---||
G|--2~~~---10~~~---5~~~---9~~~---||
C|--2~~~---10~~~---5~~~---9~~~---||
 
--2:56-3:31--
Gtr 1
E|-----------------------------------------------------||
B|-10-10-10-11-6-10-10-8-8-6-10-10-10-13-11-10-10-8-8--||
G|-----------------------------------------------------||2X
D|-----------------------------------------------------||
A|-----------------------------------------------------||
E|-----------------------------------------------------||

--3:10-3:31-
Gtr 2
E|---------------17-17-18-13-17-17-15-15-13-17-17-17-17-20-18-17-17-20-20--||
B|-------------------------------------------------------------------------||
G|--5~-5-5-5~~-------------------------------------------------------------||
D|-------------------------------------------------------------------------||
A|-------------------------------------------------------------------------||
E|-------------------------------------------------------------------------||

--3:31-3:48-
Gtr 1
E|-----------------------------------------------------||
B|--15-10-13-11-10-10-8-8-6-10-15-10-11-13-13-13-8-10--||
G|-----------------------------------------------------||
D|-----------------------------------------------------||
A|-----------------------------------------------------||
E|-----------------------------------------------------||

--3:48-4:24--
Gtr 2
E|--14---14----17-14-17-14-17-12-17-12-16-12-16-12--||
B|-----14---14--------------------------------------||
G|--------------------------------------------------||4X
D|--------------------------------------------------||
A|--------------------------------------------------||
E|--------------------------------------------------||

--3:48-4:24-
Gtr 1
E|---------------------------------------------||
B|--14---14---15---15---14---14---12----12-----||
G|-----11---11---14---14---9----9----13----13--||4X
D|---------------------------------------------||
A|---------------------------------------------||
E|---------------------------------------------||

--3:48-4:24-
Gtr 3, 4
D|-------------------------------||
A|-------------------------------||
F|-------------------------------||4X
C|--6~~~---2~~~---9~~~---13~~~---||
G|--6~~~---2~~~---9~~~---13~~~---||
C|--6~~~---2~~~---9~~~---13~~~---||

--4:24-4:41--
Gtr 1   
E|-13-13-------13-13-------14-14--------14-14-------13-13--------13-13--------11-11--------11-11-------||
B|--------11-11------11-11--------11-11-------11-11-------14-14---------14-14-------13-13-------13-13--||
G|-----------------------------------------------------------------------------------------------------||2X
D|-----------------------------------------------------------------------------------------------------||
A|-----------------------------------------------------------------------------------------------------||
E|-----------------------------------------------------------------------------------------------------||

-4:24-4:41-
Gtr 2
E|----------------------------------------------------------------------||
B|--6-6------6-6-----7-7-----7-7-----6-6-----6-6-----4-4------4-4-------||
G|-------6-6-----6-6-----6-6-----6-6-----6-6-----6-6------5-5------5-5--||2X
D|----------------------------------------------------------------------||
A|----------------------------------------------------------------------||
E|----------------------------------------------------------------------||

--4:24-4:41--
Gtr 3, 4
D|-------------------------------||
A|-------------------------------||
F|-------------------------------||2X
C|--10~~~---6~~~---13~~~---5~~~--||
G|--10~~~---6~~~---13~~~---5~~~--||
C|--10~~~---6~~~---13~~~---5~~~--||

--4:41-4:58--
Gtr 1
E|--------------------------------------------------------------------------------------------------|
B|-14-11-14-11-14-11-14-11-14-11-14-11-13-11-13-14--14-11-14-11-16-11-16-11-14-11-14-11-13-11-13-11-|
G|--------------------------------------------------------------------------------------------------|
D|--------------------------------------------------------------------------------------------------|
A|--------------------------------------------------------------------------------------------------|
E|--------------------------------------------------------------------------------------------------|

--4:41-4:58--
Gtr 2
E|------------------------------------||
B|--6--6---7---7---6---6---4---4------||
G|----6--6---6---6---6---6---6---6----||2X
D|------------------------------------||
A|------------------------------------||
E|------------------------------------||

-4:58-5:11--                                                                  --5:11-5:15--
Gtr 1
E|---------------------------------------------------------------------------||---------------------------|
B|--11---11-----14-11-14-11-14-11-14-11-14-10-14-10-14-11-14-11-13-11-13-11--||--14-11-14-11-13-11-13-11--|
G|-----10----10--------------------------------------------------------------||---------------------------|
D|---------------------------------------------------------------------------||---------------------------|
A|---------------------------------------------------------------------------||---------------------------|
E|---------------------------------------------------------------------------||---------------------------|

--4:58-5:11--
Gtr 2
E|------------------------------------------------||
B|--6--6---7--7---6---6--2---2--6--6---6-4-6-4-6--||
G|----6--6--6---6---6---6--2---2--6--6------------||
D|------------------------------------------------||
A|------------------------------------------------||
E|------------------------------------------------||

--5:05-5:32--
Gtr 3
D|----------------------------------------||||
A|----------------------------------------||||
F|----4---4-------------------------------||||
C|--6---6---------------------------------||||
G|------------3~-5~-6~-8~-10~-11~-3~-11~--||||
C|----------------------------------------||||

--5:11-5:32-
Gtr 1
E|----------------------------------------------------------------------------------------||||
B|--14-11-14-11-14-10-14-10-14-11-14-11-14-10-14-10-14-10-14-10-19-14-19-14-19-14-19-14---||||
G|----------------------------------------------------------------------------------------||||
D|----------------------------------------------------------------------------------------||||
A|----------------------------------------------------------------------------------------||||
E|----------------------------------------------------------------------------------------||||

--5:11-5:32-
Gtr 2
E|--------------------------------------------------------------------------------------------||||
B|---6----6---4---4---6---6---7----7-----6----6-----7----7----7----7----7----7----7----7------||||
G|------6---6---6---6---6---6---------------6----6-------------------------6----6----6----6---||||
D|-------------------------------7----7----------------7----7----7---7------------------------||||
A|--------------------------------------------------------------------------------------------||||
E|--------------------------------------------------------------------------------------------||||

--5:23-5:32-
Gtr 4
D|-------------------------16~----18~----19~----21~-------||||
A|--------------------14~---------------------------------||||
F|--13~---15~---16~---------------------------------------||||
C|--------------------------------------------------------||||
G|--------------------------------------------------------||||
C|--------------------------------------------------------||||

 
Добавлено: 20.10.2015
Другие материалы по этой песне:
  • Аккорды и текст

Страница создана 20.10.2015
http://primanota.ru/halo/arrival-chords.htm
Привет, Гость.
Предлагаем пройти революционный курс по гитаре.
Подарок от PrimaNota.Ru, забирай!