PrimaNota.ru - самый крупный в мире бесплатный архив песенных текстов, аккордов, табулатур и нот


Halifax - Such A Terrible Trend - текст песни, таба, видео

Регистрация Запомнить меня
Войти через:  Facebook Google Twitter Vk Yandex Mail.ru

Halifax - Such A Terrible Trend - текст песни, таба, видео

Печатать
Просмотров: 163
-------------------------------------------------------------------------------
                             Such a Terrible Trend - Halifax
-------------------------------------------------------------------------------
Tabbed by: MxCr85pro
Email: Haggardskater57@gmail.com

For now, this is all i've figured out.. But when I get the chance, i'm going to finish 
tab, but this is what I have for now.

Tuning: CGCFAD

Intro:
d|---------------------------------------------------------------------------|
A|---------------------------------------------------------------------------|
F|-//-9--11-11--16--16--16--16--16--16--16--16--16---------------------------|
C|-//-x--x--x---x---x---x---x---x---x---x---x---x----------------------------|
G|-//-7--9--13--14--14--14--14--14--14--14--14--14---------------------------|
C|---------------------------------------------------------------------------|

Intro Continued:
d|---------------------------------------------------------------------------|
A|---------------------------------------------------------------------------|
F|-//-9--11-11--17--17--17--17--17--17--17--17--17---------------------------|
C|-//-x--x--x---x---x---x---x---x---x---x---x---x----------------------------|
G|-//-7--9--13--15--15--15--15--15--15--15--15--15---------------------------|
C|---------------------------------------------------------------------------|

Intro Continued:
d|---------------------------------------------------------------------------|
A|---------------------------------------------------------------------------|
F|-//-9--11-11--18--18--18--18--18--11--18--16--16--16--16--16--16--16--16---|
C|-//-x--x--x---x---x---x---x---x---x---x---x---x---x---x---x---x---x---x----|
G|-//-7--9--13--16--16--16--16--16--9---16--14--14--14--14--14--14--14--14---|
C|---------------------------------------------------------------------------|


| /  slide up
| \  slide down
| h  hammer-on
| p  pull-off
| ~  vibrato
| +  harmonic
| x  Mute note
===============================================================================
Добавлено: 31.07.2012
Другие материалы по этой песне:

Страница создана 25.04.2012
http://primanota.ru/halifax/such-a-terrible-trend-chords.htm
Привет, Гость.
Предлагаем пройти революционный курс по гитаре.
Подарок от PrimaNota.Ru, забирай!