PrimaNota.ru - самый крупный в мире бесплатный архив песенных текстов, аккордов, табулатур и нот


Halifax - I Told You So - текст песни, таба, видео

Регистрация Запомнить меня
Войти через:  Facebook Google Twitter Vk Yandex Mail.ru

Halifax - I Told You So - текст песни, таба, видео

Печатать
Просмотров: 150
Track 1
     E  E  E   E  E  E  E   E   
E||----------------------------|
B||----------------------------|
G||----------------------------|
D||--5--5-----13-----8-----10--|
A||--5--5-----13-----8-----10--|
D||--5--5-----13-----8-----10--|


   E   E  E  E  E  Q.      
--------------------------|
--------------------------|
--------------------------|
--10--10-----5-----8------|
--10--10-----5-----8------|
--10--10-----5-----8------|


  E  E  E   E  E  E  E   E   
----------------------------|
----------------------------|
----------------------------|
--5--5-----13-----8-----10--|
--5--5-----13-----8-----10--|
--5--5-----13-----8-----10--|


   E  H         E  Q     
------------------------|
------------------------|
------------------------|
--10-----------\5--8----|
--10-----------\5--8----|
--10-----------\5--8----|


  E  E  E   E  E  E  E   E   
----------------------------|
----------------------------|
----------------------------|
--5--5-----13-----8-----10--|
--5--5-----13-----8-----10--|
--5--5-----13-----8-----10--|


   E   E  E  E  E  Q.      
--------------------------|
--------------------------|
--------------------------|
--10--10-----5-----8------|
--10--10-----5-----8------|
--10--10-----5-----8------|


  E  E  E   E  E  E  E   E   
----------------------------|
----------------------------|
----------------------------|
--5--5-----13-----8-----10--|
--5--5-----13-----8-----10--|
--5--5-----13-----8-----10--|


   E  E  E  E  S  S  E  Q     
-----------------------------|
-----------------------------|
-----------------------------|
--10-----------5h-6p-5-------|
--10-----5--8-----------8----|
--10-------------------------|


  E  E  E   E  E  E  E   E   
----------------------------|
----------------------------|
----------------------------|
--5--5-----13-----8-----10--|
--5--5-----13-----8-----10--|
--5--5-----13-----8-----10--|


   E   E  E  E  E  Q.      
--------------------------|
--------------------------|
--------------------------|
--10--10-----5-----8------|
--10--10-----5-----8------|
--10--10-----5-----8------|


  E  E  E   E  E  E  E   E   
----------------------------|
----------------------------|
----------------------------|
--5--5-----13-----8-----10--|
--5--5-----13-----8-----10--|
--5--5-----13-----8-----10--|


   E  H         E  Q     
------------------------|
------------------------|
------------------------|
--10-----------\5--8----|
--10-----------\5--8----|
--10-----------\5--8----|


  E  E  E   E  E  E  E   E   
----------------------------|
----------------------------|
----------------------------|
--5--5-----13-----8-----10--|
--5--5-----13-----8-----10--|
--5--5-----13-----8-----10--|


   E   E  E  E  E  Q.      
--------------------------|
--------------------------|
--------------------------|
--10--10-----5-----8------|
--10--10-----5-----8------|
--10--10-----5-----8------|


  E  E  E   E  E  E  E   E   
----------------------------|
----------------------------|
----------------------------|
--5--5-----13-----8-----10--|
--5--5-----13-----8-----10--|
--5--5-----13-----8-----10--|


   E  E  E  E  S  S  E  Q              
-----------------------------|-------||
-----------------------------|-------||
-----------------------------|-------||
--10-----------5h-6p-5-------|-------||
--10-----5--8-----------8----|-------||
--10-------------------------|-------||





Добавлено: 21.03.2012
Другие материалы по этой песне:
  • Аккорды и текст

Страница создана 21.03.2012
http://primanota.ru/halifax/i-told-you-so-chords.htm
Привет, Гость.
Предлагаем пройти революционный курс по гитаре.
Подарок от PrimaNota.Ru, забирай!