PrimaNota.ru - самый крупный в мире бесплатный архив песенных текстов, аккордов, табулатур и нот


Half Noise - Reproof - таба, видео

Регистрация Запомнить меня
Войти через:  Facebook Google Twitter Vk Yandex Mail.ru

Half Noise - Reproof - таба, видео

Печатать
Просмотров: 71
-------------------------------------------------------------------------------
                             Reproof - Half Noise
-------------------------------------------------------------------------------
Tabbed by:kats
E-mail:

Tuning:

e|12-13-12-13----------------10-12-10-12---------------12-13-12-13-----------|
B|------------13-12-13-12-13-------------13-12-13-12-8------------13-12-13-12|
G|---------------------------------------------------------------------------|
D|---------------------------------------------------------------------------|
A|---------------------------------------------------------------------------|
E|---------------------------------------------------------------------------|

e|10-12-10-12----------------------------------------------------------------|
B|------------13-12-13-12-8--------------------------------------------------|
G|---------------------------------------------------------------------------|
D|---------------------------------------------------------------------------|
A|---------------------------------------------------------------------------|
E|---------------------------------------------------------------------------|


************************************

| /   slide up
| \   slide down
| h   hammer-on
| p   pull-off
| ~   vibrato
| +   harmonic
| x   Mute note
| b   Bend
| pb  Pre-bend
| br  Bend release
| pbr Pre-bend release
| brb Bend release bend

************************************
Добавлено: 21.11.2015
Другие материалы по этой песне:
  • Аккорды и текст

Страница создана 21.11.2015
http://primanota.ru/half-noise/reproof-chords.htm
Привет, Гость.
Предлагаем пройти революционный курс по гитаре.
Подарок от PrimaNota.Ru, забирай!