PrimaNota.ru - самый крупный в мире бесплатный архив песенных текстов, аккордов, табулатур и нот


Half Moon Run - Trust - таба, видео

Регистрация Запомнить меня
Войти через:  Facebook Google Twitter Vk Yandex Mail.ru

Half Moon Run - Trust - таба, видео

Печатать
Просмотров: 91
Уроки эстрадного вокала в Санкт-Петербурге
Trust - Half Moon Run
Guitar Tab

Title: Trust
Artist: Half Moon Run (Portielje, Mollander, Phillips and Symonds)
Album: Sun Leads Me On

CHORUS 1 (1:00)

e|----------------|----------------| 4 times
B|13----11--13--11|--------11----13|
G|----------------|----12----------|
D|----------------|----------------|
A|----------------|----------------|
E|----------------|----------------|

e|13----11--13--11|--------11----13| 4 times
B|13----11--13--11|----13--11----13|
G|----------------|----12----------|
D|----------------|----------------|
A|----------------|----------------|
E|----------------|----------------|

There is no guitar part in the live version, from what I've seen so far.



If you want to play chords (transcribed from bottom string to top string) while there's no guitar during the 
verses and other choruses:

G# (466544)   A# (688766)   F#m (133111)



If you want a bass like sound while there's no guitar during the verses and other choruses:

G|----------------|----------------|
D|-6-6-6-6-6-6-8-8|-3-3-3-3-3-3-5-5|
A|----------------|----------------|
E|4-4-4-4-4-4-6-6-|1-1-1-1-1-1-3-3-|
Добавлено: 09.05.2016
Другие материалы по этой песне:
  • Аккорды и текст

Страница создана 09.05.2016
http://primanota.ru/half-moon-run/trust-chords.htm
Привет, Гость.
Предлагаем пройти революционный курс по гитаре.
Подарок от PrimaNota.Ru, забирай!