PrimaNota.ru - самый крупный в мире бесплатный архив песенных текстов, аккордов, табулатур и нот


Half Moon Run - 21 Gun Salute - таба, видео

Регистрация Запомнить меня
Войти через:  Facebook Google Twitter Vk Yandex Mail.ru

Half Moon Run - 21 Gun Salute - таба, видео

Печатать
Просмотров: 85
Title: 21 Gun Salute
Artist: Half Moon Run (Portielje, Mollander, Phillips and Symonds)
Album: Dark Eyes
Tuning: Standard

The only guitar parts in the studio version are during the chorus.

First Chorus: 1:40
e|--12----|--7-----|--14----|--9-----|  Play 3 times
B|8---8-\-|3---3-/-|10--10\-|5---5-/-|
G|--------|--------|--------|--------|
D|--------|--------|--------|--------|
A|--------|--------|--------|--------|
E|--------|--------|--------|--------|

e|--12----|--7-----|
B|8---8-\-|3---3---|
G|--------|--------|
D|--------|--------|
A|--------|--------|
E|--------|--------|

Second Chorus: Only come in at 2:52 
e|--7-----|--14----|--9-----|
B|3---3-/-|10--10\-|5---5-/-|
G|--------|--------|--------|
D|--------|--------|--------|
A|--------|--------|--------|
E|--------|--------|--------|

e|--12----|--7-----|--14----|--9-----|  Play 4 times
B|8---8-\-|3---3-/-|10--10\-|5---5-/-|
G|--------|--------|--------|--------|
D|--------|--------|--------|--------|
A|--------|--------|--------|--------|
E|--------|--------|--------|--------|

e|--12----|--7-----|
B|8---8-\-|3---3---|
G|--------|--------|
D|--------|--------|
A|--------|--------|
E|--------|--------|

*For beginners, you can avoid stretching your fingers by playing the B string notes on the G string 
(it will always be the same fret as the note on the e string).

As for the main riff, played on a keyboard, not a guitar, you can scratch these notes (timing may not be exact):
e|--------|--------|--------|--------|
B|--------|--------|--------|--------|
G|--------|--2-4---|2-0---4-|--2-0---|
D|0---2-4-|--4-5---|4-2---5-|--4-2---|
A|2---4-5-|--------|--------|--------|
E|--------|--------|--------|--------|
And the very first notes:
e|10--10--12--12--|14--14--12--12--|
B|7-------10------|12------10------| 
G|----------------|----------------|
D|----------------|----------------|
A|----------------|----------------|
E|----------------|----------------|

Добавлено: 26.12.2015
Другие материалы по этой песне:
  • Аккорды и текст

Страница создана 26.12.2015
http://primanota.ru/half-moon-run/21-gun-salute-chords.htm
Привет, Гость.
Предлагаем пройти революционный курс по гитаре.
Подарок от PrimaNota.Ru, забирай!