PrimaNota.ru - самый крупный в мире бесплатный архив песенных текстов, аккордов, табулатур и нот


Half Man Half Biscuit - Rock And Roll Is Full Of Bad Wools - таба, видео

Регистрация Запомнить меня
Войти через:  Facebook Google Twitter Vk Yandex Mail.ru

Half Man Half Biscuit - Rock And Roll Is Full Of Bad Wools - таба, видео

Печатать
Просмотров: 59
Rock and Roll is Full of Bad Wools


Intro

|---------------------|
|---------------------|
|-------0-------0-----|
|-----2---2---2---2---|
|---2-------3---------|
|---------------------|

Intro and verse chords

   Em   C
|---0---0---|
|---0---1---|
|---0---0---|
|---2---2---|
|---2---3---|
|---0-------|

Riff during intro and verse

|---------------0--------|
|---1--0---------0-------|
|--------0--------0------|
|----------2-------2-----|
|-------------------2----|
|--------------------0---|

Riff at end of verse 1

|-----------------------------------------------------------------|
|---0-------1---1-3-0-------1-----0-------1---1-3-0-------1---3---|
|-----0---0---0-------0---0---------0---0---0-------0---0---------|
|-------2---------------2-------------2---------------2-----------|
|-----------------------------------------------------------------|
|-----------------------------------------------------------------|

Chorus chords

    G   Bm  C   D
|---3---2---0---2---|
|---3---3---1---3---|
|---0---4---0---2---|
|---0---4---2---0---|
|---2---2---3---0---|
|---3---------------|

After chorus (2 guitars combined)

   Em   C
|---3---3---|
|---0---1---|
|---0---0---|
|---2---2---|
|---2---3---|
|---0-------|

Riff during 2nd verse

                     x4 then
|-------3-------3-----|-----|
|-----5---5---5---5---|-----|
|---4-------5---------|--4--|
|---------------------|-----|
|---------------------|-----|
|---------------------|-----|

Followed by

|------7---|
|-----8----|
|----9-----|
|---9------|
|----------|
|----------|

Last riff

                   x1                  x3
|-------------------|-------------------|
|-------------------|-------------------|
|-------0-----------|-----0-------------|
|-----2---2---2---2-|---2---2---2-4-2---|
|---2-------3---3---|-2-------3---------|
|-------------------|-------------------|

There is some other stuff at the end of the last verse that just sounds like Em 
and C in other positions. 
The intro riff pops up between the last choruses. 
Finish with Bm.
Добавлено: 01.12.2013
Другие материалы по этой песне:
  • Аккорды и текст

Страница создана 01.12.2013
http://primanota.ru/half-man-half-biscuit/rock-and-roll-is-full-of-bad-wools-chords.htm
Привет, Гость.
Предлагаем пройти революционный курс по гитаре.
Подарок от PrimaNota.Ru, забирай!