PrimaNota.ru - самый крупный в мире бесплатный архив песенных текстов, аккордов, табулатур и нот


Halestorm - Apocalytic - бас-таба, видео

Регистрация Запомнить меня
Войти через:  Facebook Google Twitter Vk Yandex Mail.ru

Halestorm - Apocalytic - бас-таба, видео

Печатать
Просмотров: 169
-------------------------------------------------------------------------------
                                    APOCALYTIC - Halestorm
-------------------------------------------------------------------------------
Tabbed by: Jailton da S. C. Santana
E-mail: jailton.santana@gmail.com

Tuning: standard

***************** Music map *****************
I split the music into the following parts:

| Intro 2x | Base A - Verse 1 | Base B - Verse 2 | Chorus 1x |
| Intro 1x | Base A - Verse 3 | Base B - Verse 2 | Chorus 2x |
| Bridge - Verse 4 | Solo | Chorus 2x | Final |

***************** Bass line *****************
This is the aproximate bass line, based on the parts above.
Obsviously, there is no rhythm indication, but I separated every bar.

================== Intro (2x)
  F#m                               B               E
G|----------------|---------------|---------------|----------------|
D|----------------|---------------|---------------|----2-2-2-3-2-0-| 2x
A|----------------|---------------|---2-2-2-2-2---|----------------|
E|-2-2-2-2-2-5-2--|---2-2-2-2-5-2-|---------------|----------------|

================== Base A - Verse 1
  F#m                        A   B
G|-------------|---------------|-------------|--------------|
D|-------------|---------------|-------------|--------------|
A|-------------|---------------|-2-2-2-2-2---|-2-2-2-4-2-0--|
E|-2-2-2-2-2---|-2-2-2-2-2---5-|-------------|--------------|

G|-------------|---------------|-------------|--------------|
D|-------------|---------------|-------------|--------------|
A|-------------|-----2-4-2-----|-2-2-2-2-2---|-2-2-2-4-2-0--|
E|-2-2-2-2-2---|-2-5-------5---|-------------|--------------|

================== Base B - Verse 2
  F#m                        A   B
G|-------------|---------------|-------------|--------------|
D|-------------|---------------|-------------|--------------|
A|-------------|---------------|-2-2-2-2-2---|-2-2-2-4-0-0--|
E|-2-2-2-2-2---|-2-2-2-2-2---5-|-------------|--------------|

   D             F#m            C#
G|-------------|-----4-6-4----|----|--------------|
D|-------------|-4-7-------7--|----|--------------|
A|-5-5-5-5-5---|--------------|-4--|--4-4-4-4-1-0-|
E|-------------|--------------|----|--------------|

================== Chorus
  F#m                               B               E
G|----------------|---------------|---------------|----------------|
D|----------------|---------------|---------------|----2-2-2-3-2-0-|
A|----------------|---------------|---2-2-2-2-2---|----------------|
E|-2-2-2-2-2-5-2--|---2-2-2-2-5-2-|---------------|----------------|

  F#m                               B      C#   A
G|----------------|---------------|------|----------|
D|----------------|---------------|------|----------|
A|----------------|---------------|--2---|-4----0---|
E|-2-2-2-2-2-5-2--|---2-2-2-2-5-2-|------|----------|

================== Intro (1x)
  F#m                               B               E
G|----------------|---------------|---------------|----------------|
D|----------------|---------------|---------------|----2-2-2-3-2-0-| 2x
A|----------------|---------------|---2-2-2-2-2---|----------------|
E|-2-2-2-2-2-5-2--|---2-2-2-2-5-2-|---------------|----------------|

================== Base A' - Verse 3
  F#m                        A   B
G|-------------|---------------|-------------|--------------|
D|-------------|---------------|-------------|--------------|
A|-------------|---------------|-2-2-2-2-2---|-2-2-2-4-0-0--|
E|-2-2-2-2-2---|-2-2-2-2-2---5-|-------------|--------------|

G|-------------|---------------|-------------|--------------|
D|-------------|---------------|-------------|--------------|
A|-------------|-----2-4-2-----|-2-----------|-2-2-2-4-2-0--|
E|-2-2-2-2-2---|-2-5-------5---|-------------|--------------|

================== Base B' - Verse 2
  F#m                        A   B
G|-------------|---------------|-------------|--------------|
D|-------------|---------------|-------------|--------------|
A|-------------|---------------|-2-2-2-2-2---|-2-2-2-4-0-0--|
E|-2-2-2-2-2---|-2-2-2-2-2---5-|-------------|--------------|

   D             F#m            C#
G|-------------|-----4-6-4----|------------|--------------|
D|-------------|-4-7-------7--|------------|--------------|
A|-5-5-5-5-5---|--------------|-4-4-4-4-4--|--4-4-4-4-4-0-|
E|-------------|--------------|------------|--------------|

================== Chorus 2x
  F#m                               B               E
G|----------------|---------------|---------------|----------------|
D|----------------|---------------|---------------|----2-2-2-3-2-0-|
A|----------------|---------------|---2-2-2-2-2---|----------------|
E|-2-2-2-2-2-5-2--|---2-2-2-2-5-2-|---------------|----------------|

  F#m                               B               C#      A
G|----------------|---------------|---------------|-----------------|
D|----------------|---------------|---------------|-----------------|
A|----------------|---------------|-2-2-2-2-2-2-2-|-4-4-4-4-0-0-0-0-|
E|-2-2-2-2-2-5-2--|---2-2-2-2-5-2-|---------------|-----------------|

  F#m                               B               E
G|----------------|---------------|---------------|----------------|
D|----------------|---------------|---------------|----2-2-2-3-2-0-|
A|----------------|---------------|---2-2-2-2-2---|----------------|
E|-2-2-2-2-2-5-2--|---2-2-2-2-5-2-|---------------|----------------|

  F#m                               B      C#   A
G|----------------|---------------|------|----------|
D|----------------|---------------|------|----------|
A|----------------|---------------|--2---|-4----0---|
E|-2-2-2-2-2-5-2--|---2-2-2-2-5-2-|------|----------|

================== Bridge - Verse 4
  D                             F#            E
G|------------|---------------|-------------|---------------|
D|------------|---------------|-------------|---------------|  2x
A|-5-5-5--5---|--5-5--5-------|-------------|---------------|
E|------------|---------------|-2-2-2--2----|-0-0-0--0------|

   B                 C#
G|-----------------|-----------------|
D|-----------------|-----------------|
A|-2-2-2-2-2-2-2-2-|-4-4-4-4-4-4-4-4-|
E|-----------------|-----------------|

================== Solo
  F#          F#   E     D            E
G|----------|----------|--------|--------|
D|----------|----------|--------|--------| 2x
A|-9~~~-----|--9-8-7-6-|-5~~----|--------|
E|----------|----------|--------|--------|

   C#
G|-----------------|-----------------|
D|-----------------|-----------------|
A|-4-4-4-4-4-4-4-4-|-4-4-4-4-4-4-4-4-|
E|-----------------|-----------------|

================== Chorus 2x
  F#m                               B               E
G|----------------|---------------|---------------|----------------|
D|----------------|---------------|---------------|----2-2-2-3-2-0-|
A|----------------|---------------|---2-2-2-2-2---|----------------|
E|-2-2-2-2-2-5-2--|---2-2-2-2-5-2-|---------------|----------------|

  F#m                               B               C#      A
G|----------------|---------------|---------------|-----------------|
D|----------------|---------------|---------------|-----------------|
A|----------------|---------------|-2-2-2-2-2-2-2-|-4-4-4-4-0-0-0-0-|
E|-2-2-2-2-2-5-2--|---2-2-2-2-5-2-|---------------|-----------------|

================== FINAL
  F#m                               B               C#      A
G|----------------|---------------|---------------|-----------------|
D|----------------|---------------|---------------|-----------------|
A|----------------|---------------|-2-2-2-2-2-2-2-|-4-4-4-4-0-0-0-0-|
E|-2-2-2-2-2-5-2--|---2-2-2-2-5-2-|---------------|-----------------|

  F#m                               B
G|----------------|---------------|---------------|
D|----------------|---------------|---------------|
A|----------------|---------------|-2-2-2-2-2-2-2-|
E|-2-2-2-2-2-5-2--|---2-2-2-2-5-2-|---------------|


| /  slide up
| \  slide down
| h  hammer-on
| p  pull-off
| ~  vibrato
| +  harmonic
| x  Mute note
===============================================================================
Добавлено: 30.10.2015
Другие материалы по этой песне:
  • Аккорды и текст

Страница создана 30.10.2015
http://primanota.ru/halestorm/apocalytic-chords.htm
Привет, Гость.
Предлагаем пройти революционный курс по гитаре.
Подарок от PrimaNota.Ru, забирай!