PrimaNota.ru - самый крупный в мире бесплатный архив песенных текстов, аккордов, табулатур и нот


Hale - Hale - аккорды и текст, таба, видео

Регистрация Запомнить меня
Войти через:  Facebook Google Twitter Vk Yandex Mail.ru

Hale - Hale - аккорды и текст, таба, видео

Печатать
Просмотров: 179
Hale
Hale
All songs of Hale
Artist: Hale
-EMI Music- 

Ear tabber  : WAlter Michael De la Cruz
Age         : 17 years old
Shool       : Saint louis university
Email add 1 : Walterfdelacruz@yahoo.com
Email add 2 : Michaelfdelacruz@yahoo.com
COntact no  : 09224012464
Date of tab : September 30,2005 1:09 PM- 4:16PM
-EMI records-

Hale
Hale(self titled album)
Em9 music

1.  Take no
2.  Broken sonnet
3.  Blue sky
4.  The day you said goodnight
5.  Wishing
6.  Here tonight
7.  Kahit pa
8.  Life support
9.  Underneath the waves
10. Runaway
11. Bent down
12. Kung wala ka
 
1. Take no
  
Here's the legend for various symbols I will be using in the tab:

= let the notes ring
0 open string
X string

Chords used in the song:
A    : 577655
C#m  : X46654
D    : XX0232
F#m  : 244222

Intro 1 :

Guitar 1:
E|----9-9-7-7-10-10---------|--------------------|
A|------------------9---9---|---10-10-9-9--------|
D|--------------------9---9-|-------------9-9----|
G|--------------------------|-----------------9--| 
B|-0=-----------------------|--------------------|
e|--------------------------|-9=-----------------|

Intro 2: Dito na papasok ung drums,Bas guitar at Rhythm guitar

Guitar 1:
E|----9-9-7-7-10-10---------|--------------------|
A|------------------9---9---|---10-10-9-9--------|
D|--------------------9---9-|-------------9-9----|
G|--------------------------|-----------------9--| (3x)
B|-0=-----------------------|--------------------|
e|--------------------------|-9=-----------------|

Guitar 2: A-C#m ; (3x)

Verse 1:
     
A                                 C#m
  I've gone away and went through hell and back
A                      C#m
I never was and will again
 A                        C#m
All the tears i've held inside
     A                  C#m
Why it had to be this long


Chorus:
                  
    D                F#m  
And i have failed to see

Instrumental: A-C#m ; (2x) Parang sa intro din

Verse 2:
  
A                         C#m
 I would've wanted you gone
A                        C#m
Ah, but it's just too soon
A                          C#m
All the times i kept you outside
A                         C#m
Why you had to be so strong

Chorus 2:
      D                 F#m
  And i have failed to see
           D                   F#m
  These dreams they haunt me back
               A-C#m (2x)
  Praise fate...
  
  A          C#m 
  YOu...oooohh
  A          C#m 
  YOu...oooohh
  A          C#m 
  YOu...oooohh
  A          C#m 
  YOu...oooohh
      D                 F#m
  And i have failed to see
           D                   F#m  A-C#m
  These dreams they haunt me back 
  A          C#m 
  YOu...oooohh
  A          C#m 
  YOu...oooohh
  A          C#m 
  YOu...oooohh
  A          C#m  A
  YOu...oooohh
 
2. Broken sonnet (Their 1st single)

Intro: 2x
e ----------------------|------------------------|-----------------------|
B ----------------------|------------------------|-----------------------|
G -----0----------0-----|------0-----------0-----|------0----------0-----|
D ---0----0----0--------|----0----0-----0--------|----0---0------0-------|
A -7---------7-------9--|-10---------10------9---|--5---------5----------|
E ----------------------|------------------------|---------------------7-|


e|---------------------------|
B|---------------------------|
G|---------------------------| 
D|-----0----------0----------| 2x
A|---0----0-----0---0--------| 
E|-8----------8--------------|

Note: STrum 1st the chord Em bago papasok ung kanta

Verse 1:
Em               G
  And now i concede
        D                   C9
on the night of this fifteenth song
      Em     G        D    C9
of melancholy, of melancholy
Em        G      D                  C9
  now i will repeat in this fourth line
    Em      G    D       C9
that i love you, i love you


Refrain:
Am     Bm           C9
  i don't care what they say
    
Em      D             C9
  i don't care what they do

Chorus:
        Em           D       C9
cause tonight i'll leave my fears behind
        Em          D        C9
cause tonight i'll be right at your side


interlude:
e ----------------------|------------------------|-----------------------|
B ----------------------|------------------------|-----------------------|
G -----0----------0-----|------0-----------0-----|------0----------0-----|
D ---0----0----0--------|----0----0-----0--------|----0---0------0-------|
A -7---------7-------9--|-10---------10------9---|--5---------5----------|
E ----------------------|------------------------|---------------------7-|


e|---------------------------|
B|---------------------------|
G|---------------------------| 
D|-----0----------0----------| 2x
A|---0----0-----0---0--------| 
E|-8----------8--------------|


Verse 2:
Em                  G       D    C9
  the clock on the tv says 8:39 pm
         Em  G             D C9
it's the sa--me, it's the same
Em              G
  and in this next line
     D            C9
i'll say it over again
     Em       G     D    C9
that i love you, i love you


Refrain:
Am     Bm           C9
  i don't care what they say
    
Em      D             C9
  i don't care what they do

Chorus:
        Em           D       C9
cause tonight i'll leave my fears behind
        Em          D        C9
cause tonight i'll be right at your side

Bridge:
    G               D
lie down right next to me
     Em                C9  D
lie down right next to me
     G               D
and i will never let go
               C9 
will never let go
 
Adlib 1: Em-D-C9; 2x

Chorus:
        Em           D       C9
cause tonight i'll leave my fears behind
        Em          D        C9
cause tonight i'll be right at your side

Bridge:
    G               D
lie down right next to me
     Em                C9  D
lie down right next to me
     G               D
and i will never let go
               C9 
will never let go
      
Adlib 2: Em-D-C9; 2x

Outro:
e|--------------------------------------------------------------------|
B|--------------------------------------------------------------------|
G|-----0-0-----0-0-----0-0-----0-0-----0-0-----0-0-------0-0-----0-0--|
D|----0-0-----0-0-----0-0-----0-0-----0-0-----0-0-------0-0-----0-0---|
A|--7-------7-------10------10------5-------5-------------------------|
E|--------------------------------------------------7-8-------8-------|
   still    i      see the         tears from      your eyes
e|-----------------------------------------------|
B|-----------------------------------------------|
G|-----0------0------0------0------0------0------|
D|----0--0---0--0---0--0---0--0---0--0---0--0----|
A|--0------2------3------5-----------------------|
E|------------------------------0------2------3--|
    maybe i'm     just not the one    for   you 
     
 
3. Blue Sky
 
"There's a blue sky waiting tomorrow"..la.la..la.la
This is just some of the lines in their song BLUE SKY
written by Roll Martinez the lead Guitarist of the BAnd.
Roll also wrote the song "Broken SOnnet" and "The day You said Goodnight"
Hehehe. WAla lang

Ganda ng message ng song na to. Para to sa inyong lahat..
GO TO HALE!!!


These are the chords used in the song
B    : X244XX
B/Bb : X144XX or X243XX
A   : 002200
E    : 022100
F#   : 244322
Ab   : 466XXx


Here's the legend for various symbols I will be using in the tab: 

X string
0 open string
p pull
/ slide down


Intro: Drums 1st
Rhythm Guitar: B-B/Bb-A-E 2x
BAss Guitar:

e|------------------------------------------|
B|------------------------------------------|
G|------------------------------------------| 2x
D|------------------------------------------| 
A|--7/9----7p6-7p6-----7p6-7p6----7p6-7/9-9-| 
E|-----------------7-----------7------------|

VErse 1:
     B              B/Bb          
When do stars fade their light?
          A               E
Does the moon and the sun make it right
     B              B/Bb 
For you the world maybe
          A              E
Like an endless storm chasing a mystery


Instrumental: B-B/Bb-A-E

      B          B/Bb     
Is there in your heart?
           A             E            hold
Does your body drop and tell you to stop
B               B/Bb 
Loving you or loving me
 
        A                        E       hold
When it all falls down you just sing with me

Chorus:
                B               B/Bb 
Coz there
Добавлено: 14.08.2013
Другие материалы по этой песне:
  • Аккорды и текст

Страница создана 14.08.2013
http://primanota.ru/hale/hale-chords.htm
Привет, Гость.
Предлагаем пройти революционный курс по гитаре.
Подарок от PrimaNota.Ru, забирай!