PrimaNota.ru - самый крупный в мире бесплатный архив песенных текстов, аккордов, табулатур и нот


Hale - 78 - аккорды и текст, таба, видео

Регистрация Запомнить меня
Войти через:  Facebook Google Twitter Vk Yandex Mail.ru

Hale - 78 - аккорды и текст, таба, видео

Печатать
Просмотров: 117
78
Hale
Hale
7,8
Tabbed by: Neonflame_78.1
Tuning: EBGDAE

Intro:
e|------------------------|
B|------------------------|
G|-----------------(hold)-|(2x)
D|-0---0--7-0---0-7-------|
A|---4- -4----4-----------|
E|------------------------|

e|------------------------------|
B|-------------------(hold)-----|
G|---------6-------6------------| (2x)
D|---0-7--0--7-7--0-------------|
A|-2----------------------------|
E|------------------------------|

Verse:
C
I
Добавлено: 16.08.2013
Другие материалы по этой песне:
  • Аккорды и текст

Страница создана 14.06.2013
http://primanota.ru/hale/78-chords.htm
Привет, Гость.
Предлагаем пройти революционный курс по гитаре.
Подарок от PrimaNota.Ru, забирай!