PrimaNota.ru - самый крупный в мире бесплатный архив песенных текстов, аккордов, табулатур и нот


Haken - Darkest Light - таба, видео

Регистрация Запомнить меня
Войти через:  Facebook Google Twitter Vk Yandex Mail.ru

Haken - Darkest Light - таба, видео

Печатать
Просмотров: 146
This is a tab for Richard's intro tapping lick to Darkest Light (Blind) from Hakens EP Restoration and it's 
really killer. Charlie kinda hangs on the F# with his 8 string while Rich plays this (also on an 8 string, 
I believe, but he doesnt go to the B or F# so its all good) all taps and pull offs and no pick involved.

Figure 1
e:--------------------------------------------------------|
B:--19-16-12----------------------------------------------|
G:-----------17-14-10-------------------------------------|
D:--------------------16-13-9-----------------------------|
A:----------------------------9-15-12-8-9-----------------|
E:---------------------------(14)-------------------------|

Figure 2
e:--------------------------------------------------------|
B:---------------------------------13---------------------|
G:--------------------------------------------------------|
D:------------10-15-19------------------------------------|
A:----9-14-18---------------------------------------------|
E:--------------------------------------------------------|

Note:
The track starts with a sixteenth note rest then plays Fig. 1 for this guitar part and the last note is an
 eighth. It then does a whole rest and repeats once more. The third time you play Fig. 1 it is followed by 
a quarter rest then Fig. 2. The last A played is held for a quarter and a sixteenth then the C is held for 
an eighth. Hope this helps everyone. Also, the way I play is with the 14th fret on the E instead of 9th on 
the A in Fig. 1. It feels easier to me.
Добавлено: 21.07.2015
Вам также может быть интересно:
Другие материалы по этой песне:
  • Аккорды и текст

Страница создана 21.07.2015
http://primanota.ru/haken/darkest-light-chords.htm
Привет, Гость.
Предлагаем пройти революционный курс по гитаре.
Подарок от PrimaNota.Ru, забирай!