PrimaNota.ru - самый крупный в мире бесплатный архив песенных текстов, аккордов, табулатур и нот


Håkan Hellström - Nu Kan Du Få Mig Så Lätt - таба, видео

Регистрация Запомнить меня
Войти через:  Facebook Google Twitter Vk Yandex Mail.ru

Håkan Hellström - Nu Kan Du Få Mig Så Lätt - таба, видео

Печатать
Просмотров: 83
Авторы музыки: Håkan Hellström
Авторы текста: Håkan Hellström
Artist: Håkan Hellström
  Song: Nu kan du få mig så lätt.(intro)
 
(SWE)
Alla gitarrerna verkar plocka lite som de vill.. så här plockar de
ackorden i introt iaf.
Speciellt Gitarr 2 är svår att höra exakt vika strängar gitarristen
plockar på,
det är inte så noga med den gitarren heller, förutom sista takten där
gitarren är
ganska tydlig. Jag försökte göra en sorts taktindelning med lodräta
linjer mellan ackorden
För att få det exakt är det nog bäst att lyssna på låten dock...
Har man bara en gitarrsolokompis kan man flytta det sista C:et från
gitarr 2 till gitarr 1
och sedan strunta helt i den sista gitarren, det låter nog bra iaf...
Toner som är inom parentes (så här) kan jag inte riktigt höra vilka de
är, det låter
nog bra med eller utan dem..
 
vanlig stämning: eBGDAE
 
(ENG)
All the guitars seem to be picking as they like.. this is how they do it
in the intro.
Especially guitar nr 2 is hard to hear exactly which strings are picked,
With this guitar however, it doesn't matter too much. The last C matters
more though.
I tried to make some rythm markings but they're not very reliable.
Best would be to listen to the song itself  to get the rythm.
If you have only two guitarists, you could probably move the last C of
guitar 2
into the guitar 1 -tab with good result, i think...
Notes put inside brackets (like this) I can't really hear which they are,
it should sound
good with or without them however..
 
Standard tuning: eBGADE
 
 
 
Gitarr 1 (guitar nr 1)
 
  G             G/F           Em            C
|-------------|-------------|-------------|-----0----0--|
|-3------3----|------3------|-------0-----|--1---1--1-1-|
|--0----------|----0---0----|----0--------|--0----------|
|---0---------|-------------|-------------|--2----------|
|----2--------|-------------|-2-----------|--3----------|
|-----3-----3-|-1---------1-|-0-----------|-------------|
 

  G             G/F           Em            C
|-------------|--------3----|-------------|-----0----0--|
|------3------|-------3-----|----0--0-----|--1---1--1-1-|
|----0--------|----0--------|----0--0-----|--0----------|
|-------------|-------------|-------------|--2----------|
|-------------|-------------|-2-----------|--3----------|
|-3---------3-|-1---------1-|-0-----------|-------------|
 

  G             G/F           Em            C
|------3------|-------------|-------------|----------------|
|-------3-----|------3------|-0-----00----|--1-1----0h1----|
|----0--------|----0---0----|-0--0--------|--0---0h5---0h5-|
|-------------|-------------|-2-----------|--2-------------|
|-------------|-------------|-2-----------|--3-------------|
|-3---------3-|-1---------1-|-0-----------|----------------|
 

  G             G/F           Em            C
|-------------|-------------|-------------|-----0----0--|
|------3------|------3------|----0--0-----|--1---1--1-1-|
|----0--------|----0---0----|----0--0-----|--0----------|
|-------------|-------------|-------------|--2----------|
|-------------|-------------|-2-----------|--3----------|
|-3---------3-|-1---------1-|-0-----------|-------------|
 

  G             G/F           Em            C
|------3------|-------------|-------------|-------------|
|-------3-----|------3------|-0-----(00)--|--1----------|
|----0--------|----0---0----|-0--0--------|--0----------|
|-------------|-------------|-2-----------|--2----------|
|-------------|-------------|-2-----------|--3----------|
|-3---------3-|-1---------1-|-0-----------|-------------|
                      ...Dom     e     uppe på tak-
 
 
 

Gitarr 2 (guitar nr 2)
                                        C
|-------------|-------------|-------------|-------------|
|-------------|-------------|-------------|-3--1-0h1-0--|
|-------------|-------------|-------------|-0-----------|
|-------------|-------------|-------------|-2-----------|
|-------------|-------------|-------------|-3-----------|
|-------------|-------------|-------------|-------------|
                                  
 
 G              G/F           Em7           C
|-------3-----|-------3-----|------(3)----|-------------|
|-------3-----|-------3-----|------(3)----|-3--1-0h1-0--|
|---0---------|---0---------|----0--------|-0-----------|
|---------(0)-|---------(0)-|----2--------|-2-----------|
|-------------|-------------|-------------|-3-----------|
|-3-----------|-1-----------|-0-----------|-------------|
 

 G              G/F           Em7           C 
|-------3-----|-------3-----|------(3)----|-------------|
|-------3-----|-------3-----|------(3)----|-3--1-0h1-0--|
|---0---------|---0---------|----0--------|-0-----------|
|---------(0)-|---------(0)-|----2--------|-2-----------|
|-------------|-------------|-------------|-3-----------|
|-3-----------|-1-----------|-0-----------|-------------|
 
 G              G/F           Em7           C
|-------3-----|-------3-----|-------------|-------------|
|-------3-----|-------3-----|-------------|-3--1-0h1-0--|
|---0---------|---0---------|----0--0-----|-0-----------|
|---------(0)-|---------(0)-|----2--2-----|-2-----------|
|-------------|-------------|-------------|-3-----------|
|-3-----------|-1-----------|-0-----------|-------------|
 
 G              G/F           Em7           C
|-------3-----|-------3-----|--------3----|-------------|
|-------3-----|-------3-----|-------------|-3-----------|
|---0---------|---0---------|----0--------|-0-----------|
|---------(0)-|---------(0)-|-------------|-2-----------|
|-------------|-------------|-------------|-3-----------|
|-3-----------|-1-----------|-0-----------|-------------|
                           ...Dom     e     uppe på tak-
 
 
 

Gitarr 3 (guitar nr 3) (sologitarr)
 
 1a takten - ingen sologitarr
|-------------|-------------|-------------|-------------|
|-------------|-------------|-------------|-------------|
|-------------|-------------|-------------|-------------|
|-------------|-------------|-------------|-------------|
|-------------|-------------|-------------|-------------|
|-------------|-------------|-------------|-------------|
 
 
 
|-------------|-------------|-------------|-------------|
|-------------|-------------|-------------|-------------|
|------7-7----|----7--5---5-|---4h5p4-----|-------------|
|-------------|-------------|-------------|-5---------5-|
|-------------|-------------|-------------|----5-5h7----|
|-------------|-------------|-------------|-------------|
 

 
|----10-10-10-|-10----------|--------------|-------------|
|-------------|----13-12-13-|-12(\)8--10--8|-------------|
|-------------|-------------|-------------7|-------------|
|-------------|-------------|--------------|-------------|
|-------------|-------------|--------------|-------------|
|-------------|-------------|--------------|-------------|
 
 
 
|-------------|-------------|-------------|-------------|
|-------------|-------------|-------------|-------------|
|------7-7----|----7--5---5-|---4h5-4-----|-------------|
|-------------|-------------|-------------|-5---------5-|
|-------------|-------------|-------------|----5-5h7----|
|-------------|-------------|-------------|-------------|
 

 
|----10-10-12-|-10----------|-------------|-------------|
|-------------|----13-12-13-|-12------8---|-------------|
|-------------|-------------|---------7---|-------------|
|-------------|-------------|-------------|-------------|
|-------------|-------------|-------------|-------------|
|-------------|-------------|-------------|-------------|
                           ...Dom     e     uppe på tak-
 

tabbed By: Jakob Rydén -2002 (SWE)
 
My email for questions comments etc. you know the call...
jakob@ryden.nu

     
Добавлено: 10.08.2013
Другие материалы по этой песне:
  • Аккорды и текст

Страница создана 10.08.2013
http://primanota.ru/hakan-hellstrom/nu-kan-du-fa-mig-sa-latt-chords.htm
Привет, Гость.
Предлагаем пройти революционный курс по гитаре.
Подарок от PrimaNota.Ru, забирай!