PrimaNota.ru - самый крупный в мире бесплатный архив песенных текстов, аккордов, табулатур и нот


Håkan Hellström - Dom Kommer Kliva P Dig Igen - таба, видео

Регистрация Запомнить меня
Войти через:  Facebook Google Twitter Vk Yandex Mail.ru

Håkan Hellström - Dom Kommer Kliva P Dig Igen - таба, видео

Печатать
Просмотров: 97
e-------------------------------------------------------------------------|
B-------------------------------------------------------------------------|
G-------------------------------------------------------------------------|
D-------0-2---2-220------------------------0-2---2-220-----2--------------|
A----2--------------2-0------------------2-------------2-0----------------|
E--3--------------------3--------------3----------------------------------|

e-------------------------------------------------------------------------|
B----------------------------------8----------------------8---------------|
G---9--7-----9-7-9-7---77-9-7-7--9----------7-9----------------------7----|
D----------9----------------------------7-9------------------9------------|
A-------------------------------------------------------------------------|
E-------------------------------------------------------------------------|


e-------------------------------------------------------------------------|
B-------------------------------------------------------------------8-----|
G------7-9-9-9-99-7---9-7---7-----7-9-77------9-7-9-7----77-9-7-7-9-------|
D--7-9--------------9-----9-----9----------9------------------------------|
A-------------------------------------------------------------------------|
E-------------------------------------------------------------------------|

Verse:  Em G C G Bm C D x2
Bridge: C G C G
Chorus: C D Em G

Kommer lägga upp med text senare.
Добавлено: 25.04.2012
Другие материалы по этой песне:
  • Аккорды и текст

Страница создана 25.04.2012
http://primanota.ru/hakan-hellstrom/dom-kommer-kliva-p-dig-igen-chords.htm
Привет, Гость.
Предлагаем пройти революционный курс по гитаре.
Подарок от PrimaNota.Ru, забирай!