PrimaNota.ru - самый крупный в мире бесплатный архив песенных текстов, аккордов, табулатур и нот


Håkan Hellström - Det är Så Jag Säger Det - таба, видео

Регистрация Запомнить меня
Войти через:  Facebook Google Twitter Vk Yandex Mail.ru

Håkan Hellström - Det är Så Jag Säger Det - таба, видео

Печатать
Просмотров: 119
Уроки эстрадного вокала в Санкт-Петербурге
-------------------------------------------------------------------------------
                 DET ÄR SÅ JAG SÄGER DET - Håkan Hellström
-------------------------------------------------------------------------------
Tabbed by: Christoffer M
Tuning: Standard

Detta är mitt första arr, håll till godo! Det är en tolkning av Håkans låt. 
Melodin följer inte texten till pricka över allt tyvärr.

e|---0----------2-2-2-2-------0-0-2-0-----------2-2-2-0----------------------|
B|-3---3------3-------------2---------3-------3-----3---3--------------------|
G|----------2-------------2-----------------4--------------------------------|
D|--------0------------------------------------------------------------------|
A|----------------------0-----------------2----------------------------------|
E|---------------------------------------------------------------------------|
hon låg på gatan medan rymdskeppen sände meddelanden genom

e|-------0-0-------2oh0-------------------------------------------------0----|
B|-----1---------1-------3----------3----------0---------2---------2oh3---3--|
G|---2---------2-----------0---0------2---2------1---1-----2-----------------|
D|-----------0---------------0---0------3---3------2---2-----2---------------|
A|-0-----------------------------------------------------0-------------------|
E|-----------------------3----------2----------0-----------------------------|
   atmos-    fär-       en                                        Hon kär sig i

e|-------2-2-2-2-------0-0-2-0-----------2-2-2-0---------0-0-------2oh0------|
B|-----3-------------2---------3-------3-----3---3-----1---------1-----------|
G|---2-------------2-----------------4---------------2---------2-------------|
D|-0---------------------------------------------------------0---------------|
A|---------------0-----------------2---------------0-------------------------|
E|---------------------------------------------------------------------------|
   handleden  i solskenet     för hon säger  att  hon  redan sett

e|-3----------2-----------0---------0--------2-----2-------23-0---------2----|
B|---3---3-------3---3------0---0-----2---2----3---------3------3-----3------|
G|-----4---4-------2---2------1---1-----0--------2-----2------------2--------|
D|-------------------------------------------0-------0------------0----------|
A|----------------------------------0----------------------------------------|
E|-3----------2-----------0--------------------------------------------------|
 spanien                ochvärldenförtjänarintedig för du är det finastejagvet  
     
e|-3oh5-5-7--10--10--7-------9--9----7---------------------2-2-2-2--7--------|
B|----------------------10-------10-----8--------3oh5-----3-----------10-----|
G|--------0-------------------------------9--------------2----------0----7---|
D|------------------------------------------------------0--------------------|
A|----------------------9------------7---------------------------------------|
E|---------------------------------------------------------------------------|
 när allt annat här  känns falskt och fel   och    jag går bara   ner mig

e|-3oh5-5-7------------------------------0-0-2-------------------------------|
B|--------8--10---10-------------------2-----------3-------------------------|
G|--------9--9-------11--------------2---------2-----------------------------|
D|--------0--0----------12--12-----------------------------------------------|
A|----------------9---------------0------------------------------------------|
E|---------------------------------------------------------------------------|
för det är så jag säger det, du är det finaste jag vet

e|---0---------2-2---0-0-1-0---------2-2-------2oh0--------------------------|
B|-3---3-----3-----3---------3-----3---------1-------3-----------------------|
G|---------2---------------------4---------2-----------0---0-----------------|
D|-------0-----------------------------------------------0---0---------------|
A|-------------------4---------2---------0-----------------------------------|
E|---------------------------------------------------3-----------------------|
Det kan ta slut i morgon eller hålla på för alltid, ibland är det så...

e|--------------------------------0---------2-2-2-2-------0-0-1-5------------|
B|-3---------0---------2-----2oh3---3-----3-------------2--------------------|
G|---2---2-----1---1-----0--------------2-------------2----------------------|
D|-----4---4-----2---2-----2----------0--------------------------------------|
A|---------------------0----------------------------0------------------------|
E|-2---------0---------------------------------------------------------------|
                      säg som det är för den här   gången krävs det

e|-----------2-0---------0-0-------2oh0----------0----------2----------------|
B|-------3-3-3---3-----1---------3-------3----------3------------------------|
G|-----4-------------2---------2-----------0---0------4---4------------------|
D|---4-----------------------0---------------0----------4--------------------|
A|-2---------------0--------------------------------2------------------------|
E|---------------------------------------3-----------------------------------|
 mer, innan jag   öppnar    armarna förlorar mig och känslorna faller fritt

e|-0------0-0------0------0---------2-2-2-2-------0-0-2-0----------2-2-2-0---|
B|---0--0-----2--2---2oh3---3-----3-------------2---------3------3-----3---3-|
G|-----1--------2---------------2-------------2----------------4-------------|
D|----------------------------0----------------------------------------------|
A|----------0-------------------------------0----------------2---------------|
E|-0-------------------------------------------------------------------------|
                     på midnattsgatorna, för vem skulle bry sig om våra hjärtan blev

e|-------0-0-------2oh0------------0-----------2-0-------0-0-------0---------|
B|-----1---------1-------3-----------3-------------0---0-----2---2-----------|
G|---2---------2-----------0---0-------2---2---------1---------2-------------|
D|-----------0---------------0---0-------3---3-------------------------------|
A|-0-------------------------------------------------------0-----------------|
E|-----------------------3-----------2-----------0---------------------------|
                förstörda? Men allt det här vänder sig in i mig

e|--2-----2-------23-0---------2----|
B|----3---------3------3-----3------|
G|------2-----2------------2--------|
D|--0-------0------------0----------|
A|----------------------------------|
E|----------------------------------|
 och du är det finastejagvet  
     
e|-3oh5-5-7--10--10--7-------9--9----7---------------------2-2-2-2--7--------|
B|----------------------10-------10-----8--------3oh5-----3-----------10-----|
G|--------0-------------------------------9--------------2----------0----7---|
D|------------------------------------------------------0--------------------|
A|----------------------9------------7---------------------------------------|
E|---------------------------------------------------------------------------|
 när allt annat här  känns falskt och fel   och    jag går bara   ner mig

e|-3oh5-5-7------------------------------0-0-2-------------------------------|
B|--------8--10---10-------------------2-----------3-------------------------|
G|--------9--9-------11--------------2---------2-----------------------------|
D|--------0--0----------12--12-----------------------------------------------|
A|----------------9---------------0------------------------------------------|
E|---------------------------------------------------------------------------|
för det är så jag säger det, du är det finaste jag vet


e|-2-0---0-2-5-0-------------------------2-------2-0------------0------------|
B|-----3---------2---2---------3-2---2-3-------1------3-------3--------------|
G|-----------------2---2-----4-----4---------2----------0---0----------------|
D|-0-----------------------4------------------------------0------------------|
A|-------------0---------2-----------------0---------------------------------|
E|----------------------------------------------------3----------------------|
   D            A        B                 D7/A       G

e|-2-------2-3-0-------0-2-0-------0---2-------2-3----5------5-3-------------|
B|---3---3-------0---0-------2---2---3---3---3---------3---3-----------------|
G|-----2-----------0-----------2-----------2-------------4-------------------|
D|-0-----------------------------------0-------------------------------------|
A|-------------------------0-------------------------------------------------|
E|-------------0--------------------------------------3----------------------|
   D           E           A            D             A

e|-2------2-0--0-------------2-0-------------0--2-------2-3--0-------0-2-----|
B|--3---3--------2---2-----1-------3-------3------3---3--------0---0---------|
G|----4------------2-----2-----------0---0----------2------------0-----------|
D|---------------------0---------------0-------------------------------------|
A|-------------0--------------------------------0----------------------------|
E|-2-------------------------------3-------------------------0---------------|
  B            A D7                G            D/A          Em/B    
        
e|-0-------0--------2-2-2-2-------0-0-2-0---------2-2-2-0--------------------|
B|---2---2---3----3-------------2---------3-----3-----3---3------------------|
G|-----2--------2-------------2---------------4------------------------------|
D|------------0--------------------------------------------------------------|
A|-0-------------------------0---------------2-------------------------------|
E|---------------------------------------------------------------------------|
  A         när jag tänkte på dig kände du mig,genom antennerna


e|-------0-0-------2oh0-------------------------------------------------0----|
B|-----1---------1-------3----------3----------0---------2---------2oh3---3--|
G|---2---------2-----------0---0------2---2------1---1-----2-----------------|
D|-----------0---------------0---0------3---3------2---2-----2---------------|
A|-0-----------------------------------------------------0-------------------|
E|-----------------------3----------2----------0-----------------------------|
  och satelliterna?                                              När du låg på

e|-------2-2-2-2-------0-0-2-0-----------2-2-2-0---------0-0-------2oh0------|
B|-----3-------------2---------3-------3-----3---3-----1---------1-----------|
G|---2-------------2-----------------4---------------2---------2-------------|
D|-0---------------------------------------------------------0---------------|
A|---------------0-----------------2---------------0-------------------------|
E|---------------------------------------------------------------------------|
  medan rymdskeppen   sände    meddelanden        genom atmosfären


e|-3----------2-----------0---------0--------2-----2-------23-0---------2----|
B|---3---3-------3---3------0---0-----2---2----3---------3------3-----3------|
G|-----4---4-------2---2------1---1-----2--------2-----2------------2--------|
D|-------------------------------------------0-------0------------0----------|
A|----------------------------------0----------------------------------------|
E|-3----------2-----------0--------------------------------------------------|
  och världen förtjänar inte dig             För du är det finaste jag vet
     
e|-3oh5-5-7--10--10--7-------9--9----7---------------------2-2-2-2--7--------|
B|----------------------10-------10-----8--------3oh5-----3-----------10-----|
G|--------0-------------------------------9--------------2----------0----7---|
D|------------------------------------------------------0--------------------|
A|----------------------9------------7---------------------------------------|
E|---------------------------------------------------------------------------|
  när allt annat är här falskt och fel         Och jag bara går ner mig



e|-3oh5-5-7----------------------------------0-0-2---------------------------|
B|--------8--10---10------------3oh5-------2-----------3---------------------|
G|--------9--9-------11------------------2---------2-------------------------|
D|--------0--0----------12---------------------------------------------------|
A|----------------9-------------------0--------------------------------------|
E|---------------------------------------------------------------------------|
för det är så jag säger det, du är det finaste jag vet

e|-2-0---0-2-5-0-------------------------2-------2-0------------0------------|
B|-----3---------2---2---------3-2---2-3-------1------3-------3--------------|
G|-----------------2---2-----4-----4---------2----------0---0----------------|
D|-0-----------------------4------------------------------0------------------|
A|-------------0---------2-----------------0---------------------------------|
E|----------------------------------------------------3----------------------|
   D            A        B                 D7/A       G

e|-2-------2-3-0-------0-2-0-------0---2-------2-3----5------5-3-------------|
B|---3---3-------0---0-------2---2---3---3---3---------3---3-----------------|
G|-----2-----------0-----------2-----------2-------------4-------------------|
D|-0-----------------------------------0-------------------------------------|
A|-------------------------0-------------------------------------------------|
E|-------------0--------------------------------------3----------------------|
   D           E           A            D             A

e|-2------2-0--0-------------2-0-------------0--2-------2-3--0-------0-2-----|
B|--3---3--------2---2-----1-------3-------3------3---3--------0---0---------|
G|----4------------2-----2-----------0---0----------2------------0-----------|
D|---------------------0---------------0-------------------------------------|
A|-------------0--------------------------------0----------------------------|
E|-2-------------------------------3-------------------------0---------------|
  B            A D7                G            D/A          Em/B    

e|-----0----2-2-2------0-0-2-0--------2-2-----0-0----2oh0--------------------|
B|----2-3--3----------2--------3-----3-------1------1-------3----------------|
G|---2----2----------2--------------4------2-------2---------0-0-------------|
D|-------0----------------------------------------0-----------0-0------------|
A|-0---------------0--------------2------0-----------------------------------|
E|----------------------------------------------------------3----------------|
  Och allt roligt börjar och slutar med  att vi är nere och ute igen

e|----------------------0-----2-2-----0-0-0-2-0------2-2----23oh0------------|
B|-3-----0------2--2oh3--3---3-------2----------3---3------3------3----------|
G|--2-2----1-1---2----------2-------2--------------4------2--------0-0-------|
D|---4-4----2-2---2--------0-------2---------------------0----------0-0------|
A|--------------0-----------------0---------------2--------------------------|
E|-2-----0--------------------------------------------------------3----------|
               Jag vänder om, hon bara ler   allén är inte så dålig ändå

e|----------------------------------0-----2---2----2oh3-0-----2--------------|
B|-3-----0--------2-----3-----2------2-2---3------3------3---3---------------|
G|--2-2---1-1------2-2---0-0---2-2----2-2---2----2----------2----------------|
D|---4-4---2-2------2-2---0-0---2-2-------0-----0----------0-----------------|
A|----------------0-----------0-----0----------------------------------------|
E|-2-----0--------------3----------------------------------------------------|
  när du går brevid   Och det är så jag säger det...



Добавлено: 21.10.2015
Вам также может быть интересно:
Другие материалы по этой песне:
  • Аккорды и текст

Страница создана 21.10.2015
http://primanota.ru/hakan-hellstrom/det-ar-sa-jag-sager-det-chords.htm
Привет, Гость.
Предлагаем пройти революционный курс по гитаре.
Подарок от PrimaNota.Ru, забирай!