PrimaNota.ru - самый крупный в мире бесплатный архив песенных текстов, аккордов, табулатур и нот


Hairless Mary - Stolen=20 - бас-таба, видео

Регистрация Запомнить меня
Войти через:  Facebook Google Twitter Vk Yandex Mail.ru

Hairless Mary - Stolen=20 - бас-таба, видео

Печатать
Просмотров: 85
Band-Hairless Mary
Song-Stolen=20
CD-Do You Know the Secret?
Albino Apache Records

Standard Tuning 5-String (B,E,A,D,G)

 =BA -Harmonic=20
 s -Slap
 / -Slide
 x -mute

	The Harmonic Slide takes a little time to do right.=20
Just sound the Harmonic and in a quick motion press down and=20
slide. The Harmonic doesn't really slide but done quick enough=20
it can sound great. Remember not to pick the note you slide into.

Intro. Guitars only
                =20
G:|---------|
D:|---------|
A:|---------|
E:|-3/12\3--|
B:|---------|

4x        =BA         =BA     =BA Harmonic Slide=20
G:|---------------------------|
D:|---------------------------|
A:|---------------------------|
E:|--0-0-12-0--0-0-12-0--x5\--|
B:|---------------------------|

Verse 1 -2x

3x
G:|-------------------------------|
D:|-----------------------------*-|
A:|-------------------------------|
E:|-0h2-2-2-2---x0h2-2-2-2-1-3--*-|
B:|-------------------------------|

G:|-----------------|
D:|-----------------|
A:|-----------------|
E:|-0h2-5-5-5-5-5-5-|
B:|-----------------|

Chorus =20

4x        =BA         =BA     =BA Harmonic Slide=20
G:|---------------------------|
D:|---------------------------|
A:|---------------------------|
E:|--0-0-12-0--0-0-12-0--x5\--|
B:|---------------------------|

Verse 2 -2x

3x
G:|-------------------------------|
D:|-----------------------------*-|
A:|-------------------------------|
E:|-0h2-2-2-2---x0h2-2-2-2-1-3--*-|
B:|-------------------------------|

G:|---------------------|
D:|---------------------|
A:|---------------------|
E:|-0h2-x5--5-5-7--7-7-7|
B:|---------------------|

Chorus

Verse 3 [Same as Verse 2]

Chorus

Verse 4 [Same as Verse 2]

Bridge

Play 3x
G:|-------------------------------------------|
D:|-----------------------------------------*-|
A:|----------3-x1-x5--------------3-x1--------|
E:|-0h2-2-2----------3---0h2-2-2-------x1-3-*-|
B:|-------------------------------------------|

G:|-------------------------------------------|
D:|-------------------------------------------|
A:|----------3-x1-x5--------------3-x1--------|
E:|-0h2-2-2----------3---0h2-2-2-------0-1-3--|
B:|-------------------------------------------|

Let ring  =BA  =BA    =BA     =BA
G:|------------------------|
D:|------------------------|
A:|---------------7--------|
E:|-0----12-12---------24--|
B:|------------------------|

G:|---------|
D:|---------|
A:|---------|
E:|-3/12\3--|
B:|---------|
                                                       Repeat ?x
G:|------------------------------|------------------------------|
D:|*-----------------------------|----------------------------*-|
A:|----------------------------1-|------------------------------|
E:|*-0h2-xx0h2-x0h2-x0h2-xxx-0---|-0h2-xx0h2-x0h2-x0h2-xxx-0--*-|
B:|------------------------------|---------------------------3--|
     s   sss   ss   ss   sss s s   s   sss   ss   ss   sss s s


     
Добавлено: 08.11.2013
Другие материалы по этой песне:
  • Аккорды и текст

Страница создана 08.11.2013
http://primanota.ru/hairless-mary/stolen20-chords.htm
Привет, Гость.
Предлагаем пройти революционный курс по гитаре.
Подарок от PrimaNota.Ru, забирай!