PrimaNota.ru - самый крупный в мире бесплатный архив песенных текстов, аккордов, табулатур и нот


Hairless Mary - Not A Porno - бас-таба, видео

Регистрация Запомнить меня
Войти через:  Facebook Google Twitter Vk Yandex Mail.ru

Hairless Mary - Not A Porno - бас-таба, видео

Печатать
Просмотров: 100
Band- Hairless Mary
Title- Genocide
Album-Not a Porno
Dropped-D Tuning

Intro/Verse 1                   x?

G|---2------5------2----2-----5--|
D|-0---0--3--3---0--0--3--3-2----|
A|-------------------------------|
D|-------------------------------|=20

Pre-Chorus              x2

G|------------------------|
D|------------------------|
A|------------------------|
D|-0-3-0--0-3-3-0--0-2-2--|

Chorus

G|-------------------------------------|
D|-------------------------------------|
A|-----------------------------------5-|
D|-0-3-3--0-2-3--0-3-3-2-2-5-5--5\-----|

G|----------------------------------------|
D|----------------------------------------|
A|-----------------------------------5-5--|
D|-0-3-3--0-2-3--0-3-3-2-2-5-5----5-------|

Bridge
                                                   x?
G|---------------2--------------------2-----------5-|
D|-0-2h3p2-0---3----0-2h3p2-0----3-2-0--3-----------|
A|--------------------------------------------------|
D|--------------------------------------------------|
                                                   x1
G|---------------5--------------------5-----------8-|
D|-0-5h6p6-0---6----0-5h6p5-0----6-5-0--6-----------|
A|--------------------------------------------------|
D|--------------------------------------------------|

G|---------------5--------------------5------|
D|-0-5h6p5-0---6----0-5h6p5-0----6-5-0--3-2--|
A|-------------------------------------------|
D|-------------------------------------------|                          =
                                                                        =
 	  x?
G|--------------------------------------------------|
D|---------------2--------------------2-----------5-|
A|-0-2h3p2-0---3----0-2h3p2-0----3-2-0--3-----------|
D|--------------------------------------------------|
                                       x1
G|---------------------------------------|
D|---------------2--------------------2--|
A|-0-2h3p2-0---3----0-2h3p2-0----3-2-0--2|
D|---------------------------------------|

Pre-Chorus                     x2
G|-----------------------------|
D|-----------------------------|
A|-----------------------------|
D|-0-3-0--0-3-3-0--0-2-2-------|=20

Chorus

G|-------------------------------------|
D|-------------------------------------|
A|-----------------------------------5-|
D|-0-3-3--0-2-3--0-3-3-2-2-5-5--5\-----|

G|--------------------------------------|
D|--------------------------------------|
A|-----------------------------------5-5|
D|-0-3-3--0-2-3--0-3-3-2-2-5-5----5-----|
                                         x?
G|-----------------------------------------|
D|----2-2-------------2-2----------5----3--|
A|-0-------0-2-3-0--------3-2-0-----0----0-|
D|-----------------------------------------|
			         x?=09
G|-----------------------------------|
D|-----------------------------------|
A|--------------------------------5-5|
D|-0-3-3---2-2---3-3-2-2-5-5----5----|

Outro
			    	           x?
G|-----------------------------------------|
D|----2-2-------------2-2----------5----3--|
A|-0-------0-2-3-0--------3-2-0-----0----0-|
D|-----------------------------------------|


     
Добавлено: 19.06.2013
Вам также может быть интересно:
Другие материалы по этой песне:
  • Аккорды и текст

Страница создана 19.06.2013
http://primanota.ru/hairless-mary/not-a-porno-chords.htm
Привет, Гость.
Предлагаем пройти революционный курс по гитаре.
Подарок от PrimaNota.Ru, забирай!