PrimaNota.ru - самый крупный в мире бесплатный архив песенных текстов, аккордов, табулатур и нот


Hail The Sun - Will They Blame Me If You Go Disappearing - таба, видео

Регистрация Запомнить меня
Войти через:  Facebook Google Twitter Vk Yandex Mail.ru

Hail The Sun - Will They Blame Me If You Go Disappearing - таба, видео

Печатать
Просмотров: 38
Tabbed by: Joshua Garcia (joshuag523@aol.com)

Tabs for the song: Will They Blame Me If You Go Disappearing? by Hail The Sun
Please rate and let me know if you have any corrections. Thank you.


Tuning: Standard (E A D G B E)

Guitar 1 = Left Speaker
Guitar 2 = Right Speaker


0:00 - 0:14
Guitar 2:
E||---------------------------------------------------|
B||---------------------------------------------------|
G||---------------------------------------------------|
D||----7-----4-----7-----4-----7-----4-----4-----2----|
A||---------------------------------------------------|
E||--7---0-3---0-7---0-3---0-7---0-3---0-0---0-2---0--|


Guitar 1:
E||---------------------------------------------------|
B||---------------------------------------------------|
G||---------------------------------------------------|
D||----------2-----7-----4-----7-----4-----7-----4----|
A||---------------------------------------------------|
E||--0-0-0-2---0-7---0-3---0-7---0-3---0-7---0-3---0--|



Guitar 1:
E||--------------|
B||--------------|
G||--------------|
D||--2-2----2-2--|
A||--x-x----x-x--|
E||--0-0----3-3--|


Guitar 2:
E||--------------|
B||--------------|
G||--------------|
D||--2-2----4-4--|
A||--x-x----x-x--|
E||--0-0----3-3--|



0:15 - 0:18
Guitar 1:
E||----------------------------------------------------------|
B||----------10-12-10---------10-12-10---------10-12-10------|
G||--11-9-11----------11-9-11----------11-9-11----------11~--|
D||----------------------------------------------------------|
A||----------------------------------------------------------|
E||----------------------------------------------------------|


Guitar 2:
E||-----------------------------------|
B||-----------------------------------|
G||--4--4--4--4--4--4--4--4--4--------|
D||--5--5--5--5--5--5--5--5--5-/-11~--|
A||--x--x--x--x--x--x--x--x--x-/-12~--|
E||--3--3--3--3--3--3--3--3--3-/-10~--|



0:19 - 0:34
Guitar 1/2:
E||---------------------------------------------------|
B||---------------------------------------------------|
G||---------------------------------------------------|
D||----7-----4-----7-----4-----7-----4-----4-----2----| x2
A||---------------------------------------------------|
E||--7---0-3---0-7---0-3---0-7---0-3---0-0---0-2---0--|


Guitar 1:
E||------------------------------------------------------------|
B||------------------------------------------------------------|
G||----------------------------------------------------2-------|
D||-----11\7---7/11----11\7---7/11----11\7---7\4---4-0---4/11--|
A||------------------------------------------------------------|
E||--10------7------10------7------10------7-----3-------------|


E||-----------------------------------------------------------------------|
B||-----------------------------------------------------------------------|
G||-----------------------------------------------------------------------|
D||-----11\7---7/11----11\7---7/11----11\7---7\4---7\4---4/7---7\4---4/7--|
A||-----------------------------------------------------------------------|
E||--10------7------10------7------10------7-----7-----3-----7-----3------|


Guitar 2:
E||------------------------------------------------------------|
B||----------------------------------------------------3-------|
G||-----11\7---7/11----11\7---7/11----11\7---7\4---4-0---4/11--|
D||------------------------------------------------------------|
A||------------------------------------------------------------|
E||--10------7------10------7------10------7-----3-------------|


E||-----------------------------------------------------------------------|
B||-----------------------------------------------------------------------|
G||-----11\7---7/11----11\7---7/11----11\7---7/10---7-----4-----7-----4---|
D||-----------------------------------------------------------------------|
A||-----------------------------------------------------------------------|
E||--10------7------10------7------10------7------7---0-3---0-7---0-3-----|



0:35 - 1:18
Guitar 1:
E||------|------|
B||--7~--|--7~--|
G||--9~--|--9~--|
D||--9~--|--9~--|
A||------|------|
E||------|------|


E||----------------------------------|
B||--7-----7~--------10~--------14~--|
G||----9---9~--------11~--------11~--|
D||------9-9~--------11~--------12~--| x3
A||----------------------------------|
E||----------------------------------|


E||-----------------------|
B||--7-----7~--------10~--|
G||----9---9~--------11~--|
D||------9-9~--------11~--|
A||-----------------------|
E||-----------------------|


Guitar 2:
E||--7~-------------5~-----------------------------------|
B||--7~-------------5~-----------------------------------|
G||--7~-------------6~-----------------------------------|
D||--9~-------------7~--------------4--2-----------------| x5
A||--10~------------x------------5--------4--------------|
E||--0~-------------7~--------6--------------5--5/7-\-0--|


E||--7~-------------5~--|
B||--7~-------------5~--|
G||--7~-------------6~--|
D||--9~-------------7~--|
A||--10~------------x---|
E||--0~-------------7~--|



1:19 - 1:33
Guitar 1/2:
E||---------------------------------------------------|
B||---------------------------------------------------|
G||---------------------------------------------------|
D||----7-----4-----7-----4-----7-----4-----4-----2----| x2
A||---------------------------------------------------|
E||--7---0-3---0-7---0-3---0-7---0-3---0-0---0-2---0--|


Guitar 1:
E||------------------------------------------------------------|
B||------------------------------------------------------------|
G||----------------------------------------------------2-------|
D||-----11\7---7/11----11\7---7/11----11\7---7\4---4-0---4/11--|
A||------------------------------------------------------------|
E||--10------7------10------7------10------7-----3-------------|


E||------------------------------------------------------------|
B||------------------------------------------------------------|
G||------------------------------------------------------------|
D||-----11\7---7/11----11\7---7/11----11\7---7-----7-7----4-4--|
A||------------------------------------------------x-x----x-x--|
E||--10------7------10------7------10------7-------7-7----3-3--|


Guitar 2:
E||------------------------------------------------------------|
B||----------------------------------------------------3-------|
G||-----11\7---7/11----11\7---7/11----11\7---7\4---4-0---4/11--|
D||------------------------------------------------------------|
A||------------------------------------------------------------|
E||--10------7------10------7------10------7-----3-------------|


E||------------------------------------------------------------|
B||------------------------------------------------------------|
G||-----11\7---7/11----11\7---7/11----11\7---7/10---7-----4----|
D||------------------------------------------------------------|
A||------------------------------------------------------------|
E||--10------7------10------7------10------7------7---0-3---0--|



1:34 - 1:37
Guitar 1:
E||----------------------------------------------------------|
B||----------10-12-10---------10-12-10---------10-12-10------|
G||--11-9-11----------11-9-11----------11-9-11----------11~--|
D||----------------------------------------------------------|
A||----------------------------------------------------------|
E||----------------------------------------------------------|


Guitar 2:
E||--------------------------------------|
B||--------------------------------------|
G||--4--4--4--4--4--4--4--4--4--4--4--4--|
D||--5--5--5--5--5--5--5--5--5--5--5--5--|
A||--x--x--x--x--x--x--x--x--x--x--x--x--|
E||--3--3--3--3--3--3--3--3--3--3--3--3--|



1:38 - 1:47
Guitar 1:
E||-------------------------------------------------------------------------|
B||-------------------------------------------------------------------------|
G||--9/11-11-11-9-9-9-9-7-7-7-7-9-9-9-9-9/11-11-11-9-9-9-9-7-7-7-7-9-9-9-9--|
D||--x/x--x--x--x-x-x-x-x-x-x-x-x-x-x-x-x/x--x--x--x-x-x-x-x-x-x-x-x-x-x-x--|
A||--7/9--9--9--7-7-7-7-5-5-5-5-7-7-7-7-7/9--9--9--7-7-7-7-5-5-5-5-7-7-7-7--|
E||-------------------------------------------------------------------------|


Guitar 2:
E||-------------------------------------------------------------------------|
B||-------------------------------------------------------------------------|
G||--7~---------------------------------7~-----------------7~---------------|
D||--x----------------------------------x-------------------------5--4~-----|
A||--7~---------------------------------7~----------------------------------|
E||-------------------------------------------------------------------------|


Guitar 1/2:
E||-------------------------------------------------------------------|
B||-------------------------------------------------------------------|
G||-------------------------------------------------------------------|
D||-------------------------------------------------------------------|
A||--9-9-9-9-7-7-7-7-5-5-5-5-7-7-7-7-9-9-9-9-7-7-7-7-5-5-5-5-7-7-7-7--|
E||--5-5-5-5-5-5-5-5-5-5-5-5-5-5-5-5-6-6-6-6-6-6-6-6-6-6-6-6-6-6-6-6--|



1:48 - 2:07
Guitar 1:
E||----------------------------------|----------------------------------|
B||----------10-\-3-/-10-------------|----------10-\-3-/-10-------------|
G||----------11-\-4-/-11--0--9h11-9--|----------11-\-4-/-11--0--9h11-9--|
D||--/9--12--------------------------|--/9--12--------------------------|
A||----------------------------------|----------------------------------|
E||----------------------------------|----------------------------------|


E||-------------9--\-2-/-9----------------------9------12-14--|
B||-------------10-\-3-/-10------------------------10---------|
G||--------9-11--------------0--9h11-----9--11----------------|
D||--11-12---------------------------12-----------------------| x2
A||-----------------------------------------------------------|
E||-----------------------------------------------------------|
                             .

Guitar 2:
E||----------------------------------|----------------------------------|
B||----------------------------------|----------------------------------|
G||-----------14~--\-----------------|-----------14~--\-----------------|
D||-----------x----\-------14h16-14--|-----------x----\-------14h16-14--|
A||-------14--14~--\-------14----14--|-------14--14~--\-------14----14--|
E||--/15--------------/15------------|--/15--------------/15------------|


E||-----------------------------------------------------------|
B||----------------------------------------------------14-15--|
G||-----------14~--\-------14h16-14------------14-------------|
D||-------12~-12~--\-------14----14--------12------14---------| x2
A||--/16~-----------------------------/16---------------------|
E||--------------------15-------------------------------------|



2:08 - 2:37
Guitar 1:
E||--------------10-----------9-----------7------------|
B||----8---8---8----8---8---8---8---8---8---8---8---8--|
G||--9---9---9--------9---9-------9---9-------9---9----|
D||----------------------------------------------------|
A||----------------------------------------------------|
E||----------------------------------------------------|
     . . . . . . .  . . . . . . . . . . . . . . . . .


E||--------------7-----------5---------------6--------|
B||----7---7---7---7---7---7---7---7---7---7---7---7--|
G||--7---7---7-------7---7-------7---7---6-------6----|
D||---------------------------------------------------|
A||---------------------------------------------------|
E||---------------------------------------------------|
     . . . . . . . . . . . . . . . . . . . . . . . .


Guitar 2:
E||----------|---------------------------|
B||----------|---------------------------|
G||----------|---------------------------|
D||--12/14~--|--9~--------11---12---11~--|
A||----------|--x---------x----x----x----|
E||----------|--7~--------9----10---9~---|



Guitar 1:
E||--------------10-----------9-----------7------------|
B||----8---8---8----8---8---8---8---8---8---8---8---8--|
G||--9---9---9--------9---9-------9---9-------9---9----|
D||----------------------------------------------------|
A||----------------------------------------------------|
E||----------------------------------------------------|
     . . . . . . .  . . . . . . . . . . . . . . . . .


E||--------------7-----------5---------------6--------|
B||----7---7---7---7---7---7---7---7---7---7---7---7--|
G||--7---7---7-------7---7-------7---7---6-------6----|
D||---------------------------------------------------|
A||---------------------------------------------------|
E||---------------------------------------------------|
     . . . . . . . . . . . . . . . . . .


Guitar 2:
E||--------------------14----------------12----------------10-----------------|
B||-----12----12----12----12----12----12----12----12----12----12----12----12--|
G||--12----12----12----------12----12----------12----12----------12----12-----|
D||---------------------------------------------------------------------------|
A||---------------------------------------------------------------------------|
E||---------------------------------------------------------------------------|
     .  .  .  .  .  .  .  .  .  .  .  .  .  .  .  .  .  .  .  .  .  .  .  .

E||--------------------10----------------9-----------------------------------|
B||-----12----12----12----12----12----12---12----12----12--------------------|
G||--11----11----11----------11----11---------11----11-------11----11----11--|
D||-------------------------------------------------------11----11----11-----|
A||--------------------------------------------------------------------------|
E||--------------------------------------------------------------------------|
     .  .  .  .  .  .  .  .  .  .  .  .  . .  .  .  .  .



Guitar 1:
E||--------------10-----------9-----------7------------|
B||----8---8---8----8---8---8---8---8---8---8---8---8--|
G||--9---9---9--------9---9-------9---9-------9---9----|
D||----------------------------------------------------|
A||----------------------------------------------------|
E||----------------------------------------------------|


E||--------------7-----------5--------------------|
B||----7---7---7---7---7---7---7---7---7---7---7--|
G||--7---7---7-------7---7-------7---7---6---6----|
D||-----------------------------------------------|
A||-----------------------------------------------|
E||-----------------------------------------------|


Guitar 2:
E||--------------------14----------------12----------------10-----------------|
B||-----12----12----12----12----12----12----12----12----12----12----12----12--|
G||--12----12----12----------12----12----------12----12----------12----12-----|
D||---------------------------------------------------------------------------|
A||---------------------------------------------------------------------------|
E||---------------------------------------------------------------------------|


E||--------------------10----------------9-----------------------------|
B||-----12----12----12----12----12----12---12----12----12--------------|
G||--11----11----11----------11----11---------11----11-------11----11--|
D||-------------------------------------------------------11----11-----|
A||--------------------------------------------------------------------|
E||--------------------------------------------------------------------|



Guitar 1:
E||--------------10-----------9-----------7------------|
B||----8---8---8----8---8---8---8---8---8---8---8---8--|
G||--9---9---9--------9---9-------9---9-------9---9----|
D||----------------------------------------------------|
A||----------------------------------------------------|
E||----------------------------------------------------|


E||--------------7-----7~--|
B||----7---7---7---7-------|
G||--7---7---7-------7-----|
D||------------------------|
A||------------------------|
E||------------------------|


Guitar 2:
E||--------------------14----------------12----------------10-----------------|
B||-----12----12----12----12----12----12----12----12----12----12----12----12--|
G||--12----12----12----------12----12----------12----12----------12----12-----|
D||---------------------------------------------------------------------------|
A||---------------------------------------------------------------------------|
E||---------------------------------------------------------------------------|


E||--------------------10------------|
B||-----12----12----12----12----12~--|
G||--11----11----11----------11------|
D||----------------------------------|
A||----------------------------------|
E||----------------------------------|



2:38 - 2:47
Guitar 1:
E||-------------------------------------------------------------------------|
B||-------------------------------------------------------------------------|
G||--9/11-11-11-9-9-9-9-7-7-7-7-9-9-9-9-9/11-11-11-9-9-9-9-7-7-7-7-9-9-9-9--|
D||--x/x--x--x--x-x-x-x-x-x-x-x-x-x-x-x-x/x--x--x--x-x-x-x-x-x-x-x-x-x-x-x--|
A||--7/9--9--9--7-7-7-7-5-5-5-5-7-7-7-7-7/9--9--9--7-7-7-7-5-5-5-5-7-7-7-7--|
E||-------------------------------------------------------------------------|


Guitar 2:
E||-------------------------------------------------------------------------|
B||-------------------------------------------------------------------------|
G||--7~---------------------------------7~-----------------7~---------------|
D||--x----------------------------------x-------------------------5--4~-----|
A||--7~---------------------------------7~----------------------------------|
E||-------------------------------------------------------------------------|


Guitar 1/2:
E||-------------------------------------------------------------------|
B||-------------------------------------------------------------------|
G||-------------------------------------------------------------------|
D||-------------------------------------------------------------------|
A||--9-9-9-9-7-7-7-7-5-5-5-5-7-7-7-7-9-9-9-9-7-7-7-7-5-5-5-5-7-7-7-7--|
E||--5-5-5-5-5-5-5-5-5-5-5-5-5-5-5-5-6-6-6-6-6-6-6-6-6-6-6-6-6-6-6-6--|



2:47 - 2:50
Guitar 1:
E||--6---6666---6666---666--|
B||--7---7777---7777---777--|
G||--6---6666---6666---666--|
D||--8---8888---8888---888--|
A||--x---xxxx---xxxx---xxx--|
E||--7---7777---7777---777--|


Guitar 2:
E||-------------------------|
B||-------------------------|
G||-------------------------|
D||-------------------------|
A||-------------------------|
E||--7~---------------------|



2:51 - 3:01
Guitar 1:
E||----------------------------------|
B||--9---9---99--99--99--99--99--99--|
G||--8---8---88--88--88--88--88--88--|
D||--9---9---99--99--99--99--99--99--|
A||--7---7---77--77--77--77--77--77--|
E||----------------------------------|


E||--------------------------------------------------|
B||--1212--1212--1212--1212--1111--1111--1111--1111--|
G||--1111--1111--1111--1111--1111--1111--1111--1111--|
D||--9-9---9-9---9-9---9-9---9-9---9-9---9-9---9-9---|
A||--1111--1111--1111--1111--1111--1111--1111--1111--|
E||--------------------------------------------------|


E||----------------------------------|
B||--99--99--99--99--99---9---9---9--|
G||--88--88--88--88--88---8---8---8--|
D||--99--99--99--99--99---9---9---9--|
A||--77--77--77--77--77---7---7---7--|
E||----------------------------------|


Guitar 2:
E||----------------------------------|--------------------------------------------|
B||----------------------------------|--------------------------------------------|
G||--8---8---88--88--88--88--88--88--|--1111--1111--1111--1111--1111--1111--1111--|
D||--9---9---99--99--99--99--99--99--|--1313--1313--1313--1313--1313--1313--1313--|
A||--7---7---77--77--77--77--77--77--|--1111--1111--1111--1111--1111--1111--1111--|
E||--7---7---77--77--77--77--77--77--|--1111--1111--1111--1111--1111--1111--1111--|


E||-----------------------------------------------|
B||-----------------------------------------------|
G||--1111--1111--1111--1111--1111---11---11---11--|
D||--1313--1313--1313--1313--1313---13---13---13--|
A||--1111--1111--1111--1111--1111---11---11---11--|
E||--1111--1111--1111--1111--1111---11---11---11--|



3:02 - 3:22
Guitar 1:
E||--------------------------------------|
B||--------------------------------------|
G||--------------------------------------|
D||--6---6---6---6666666---6---6---6666--|
A||--6---6---6---6666666---6---6---6666--|
E||--4---4---4---4444444---4---4---4444--|


Guitar 2:
E||--4---4---4---4444444---4---4---4444--|
B||--4---4---4---4444444---4---4---4444--|
G||--4---4---4---4444444---4---4---4444--|
D||--------------------------------------|
A||--------------------------------------|
E||--------------------------------------|


Guitar 1:
E||-----------------------------------------------------------|
B||-----------------------------------------------------------|
G||--11---11---11---111111111111-13---13---13---131313131313--|
D||--x----x----x----x-x-x-x-x-x--x----x----x----x-x-x-x-x-x---|
A||--13---13---13---131313131313-11---11---11---111111111111--|
E||-----------------------------------------------------------|


E||--------------------------------------------------------------|
B||--------------------------------------------------------------|
G||--13/15---15---15---151515151515-16---16---16---161616161616--|
D||--x-/x----x----x----x-x-x-x-x-x--x----x----x----x-x-x-x-x-x---|
A||--11/13---13---13---131313131313-14---14---14---141414141414--|
E||--------------------------------------------------------------|


E||-----------------------------------------------------------------|
B||---------------------------------161616161616161616161616161616--|
G||--181818181818181818181818181818-x-x-x-x-x-x-x-x-x-x-x-x-x-x-x---|
D||--x-x-x-x-x-x-x-x-x-x-x-x-x-x-x--131313131313131313131313131313--|
A||--161616161616161616161616161616---------------------------------|
E||-----------------------------------------------------------------|


E||---------------------------------191919191919191919191919-18~--|
B||--191919191919191919191919191919-x-x-x-x-x-x-x-x-x-x-x-x--x----|
G||--x-x-x-x-x-x-x-x-x-x-x-x-x-x-x--161616161616161616161616-15~--|
D||--161616161616161616161616161616-------------------------------|
A||---------------------------------------------------------------|
E||---------------------------------------------------------------|



Guitar 1 (Dub):
E||----------------------|
B||----------------------|
G||----------------------|
D||--6---6---6---666666--| x7
A||--6---6---6---666666--|
E||--4---4---4---444444--|


E||-------------------|
B||-------------------|
G||-------------------|
D||--6---6---6---666--|
A||--6---6---6---666--|
E||--4---4---4---444--|


Guitar 2:
E||--4---4---4---444444--|
B||--4---4---4---444444--|
G||--4---4---4---444444--|
D||----------------------| x7
A||----------------------|
E||----------------------|


E||--4---4---4---444--|
B||--4---4---4---444--|
G||--4---4---4---444--|
D||-------------------|
A||-------------------|
E||-------------------|



3:23 - 3:49
Guitar 2:
E||---------------------------------------------|
B||---------------------------------------------|
G||---------------------------------------------|
D||---------------------------------------------|
A||--2---2-2-2-2-1---1-1-1-1-2---2-2-2-2-2------|
E||--4---4-4-4-4-2---2-2-2-2-0---0-0-0-0-0------|


Guitar 1:
E||---------------------------------------------|
B||---------------------------------------------|
G||------------------------------------------9--|
D||---------------------------------------------|
A||---------------------------------------------|
E||---------------------------------------------|



Guitar 1:
E||-----------------------------------------------------|
B||-----------------------------------------------------|
G||-----9----9----9----9----9----9---9---9---9---6---6--|
D||--13---13---13---11---11---11---9---9---9---8---8----|
A||-----------------------------------------------------|
E||-----------------------------------------------------|


E||---------------------------------------------|
B||---------------------------------------------|
G||------------------------------------------9--|
D||----6---6---6---8---8---8---9---9---9--------|
A||--9---9---9---7---7---7---6---6---6---6------|
E||---------------------------------------------|


E||-----------------------------------------------------|
B||-----------------------------------------------------|
G||-----9----9----9----9----9----9---9---9---9---6---6--|
D||--13---13---13---11---11---11---9---9---9---8---8----|
A||-----------------------------------------------------|
E||-----------------------------------------------------|


E||------------------------------------------------|
B||------------------------------------------------|
G||---------------------------------------------9--|
D||--666666666666-888888888888-999999999999-9------|
A||------------------------------------------------|
E||------------------------------------------------|


E||-----------------------------------------------------|
B||-----------------------------------------------------|
G||-----9----9----9----9----9----9---9---9---9---6---6--|
D||--13---13---13---11---11---11---9---9---9---8---8----|
A||-----------------------------------------------------|
E||-----------------------------------------------------|


E||------------------------------------------9--|
B||------------------------------------------9--|
G||---------------------------------------------|
D||----6---6---6---8---8---8---9---9---9--------|
A||--9---9---9---7---7---7---6---6---6---6------|
E||---------------------------------------------|


E||----------------------------------------------------|
B||--9-------------------------------------------------|
G||----9----9----9----9----9----9---9---9---9---6---6--|
D||------13---13---11---11---11---9---9---9---8---8----|
A||----------------------------------------------------|
E||----------------------------------------------------|


Guitar 2:
E||---------------------------------------------|
B||---------------------------------------------|
G||---------------------------------------------|
D||--2-2-2-2-2-2-2-2-2-2-2-2-2-2-2-2-2-2-2---2--|
A||--4-4-4-4-4-4-4-4-4-4-4-4-4-4-4-4-4-4-4---4--|
E||---------------------------------------------|


E||-----------------------------------------|
B||-----------------------------------------|
G||-----------------------------------------|
D||-----------------------------------------|
A||--2-2-2-2-2-2-1-1-1-1-1-1-2-2-2-2-2-2-2--|
E||--4-4-4-4-4-4-2-2-2-2-2-2-0-0-0-0-0-0-0--|


E||---------------------------------------------|
B||---------------------------------------------|
G||---------------------------------------------|
D||--2-2-2-2-2-2-2-2-2-2-2-2-2-2-2-2-2-2-2---2--|
A||--4-4-4-4-4-4-4-4-4-4-4-4-4-4-4-4-4-4-4---4--|
E||---------------------------------------------|


E||-------------------------------------------|
B||-------------------------------------------|
G||-------------------------------------------|
D||-------------------------------------------|
A||--222222222222-111111111111-2222222222222--|
E||--444444444444-222222222222-0000000000000--|


E||---------------------------------------------|
B||---------------------------------------------|
G||---------------------------------------------|
D||--2-2-2-2-2-2-2-2-2-2-2-2-2-2-2-2-2-2-2---2--|
A||--4-4-4-4-4-4-4-4-4-4-4-4-4-4-4-4-4-4-4---4--|
E||---------------------------------------------|


E||-----------------------------------------|
B||-----------------------------------------|
G||-----------------------------------------|
D||-----------------------------------------|
A||--2-2-2-2-2-2-1-1-1-1-1-1-2-2-2-2-2-2-2--|
E||--4-4-4-4-4-4-2-2-2-2-2-2-0-0-0-0-0-0-0--|

E||---------------------------------------------------|
B||---------------------------------------------------|
G||---------------------------------------------------|
D||--2-2-2-2-2-2-2-2-2-2-2-2-2-2-2-2-2-2-2-2-2-2-2-2--|
A||--4-4-4-4-4-4-4-4-4-4-4-4-4-4-4-4-4-4-4-4-4-4-4-4--|
E||---------------------------------------------------|



3:50 - 4:03
Guitar 1:
E||--------------7-----------6-----------4------------|
B||----5---5---5---5---5---5---5---5---5---5---5---5--|
G||--6---6---6-------6---6-------6---6-------6---6----|
D||---------------------------------------------------|
A||---------------------------------------------------|
E||---------------------------------------------------|


E||--------------4-----------2---------------3--------|
B||----4---4---4---4---4---4---4---4---4---4---4---4--|
G||--4---4---4-------4---4-------4---4---3-------3----|
D||---------------------------------------------------| x2
A||---------------------------------------------------|
E||---------------------------------------------------|


Guitar 2:
E||-----------11--------9--------7--------|
B||-----9---------9--------9--------9-----|
G||--9-----9---------9--------9--------9--|
D||---------------------------------------|
A||---------------------------------------|
E||---------------------------------------|


E||-----------7--------6------------------|
B||-----9--------9--------9---------------|
G||--8-----8--------8--------8-----12-----|
D||-----------------------------8------8--| x2
A||---------------------------------------|
E||---------------------------------------|



4:04 - 4:17
Guitar 1:
E||------------11~-----b12r11~-----9h11p9-7h9p7-6h7p6-4--6--6b7~--|
B||------9--------------------------------------------------------|
G||--/9-----9-----------------------------------------------------|
D||---------------------------------------------------------------|
A||---------------------------------------------------------------|
E||---------------------------------------------------------------|


E||--4h6p4-2h4p2-0----------------------------------------------------------|
B||-----------------2/4--5--2--2/4--2~--------//--5-2-2/4--2~---------------|
G||--------------------------------------------------------------3~--b4r3~--|
D||-------------------------------------------------------------------------|
A||-------------------------------------------------------------------------|
E||-------------------------------------------------------------------------|


Guitar 2:
E||-----------11--------9--------7--------|
B||-----9---------9--------9--------9-----|
G||--9-----9---------9--------9--------9--|
D||---------------------------------------|
A||---------------------------------------|
E||---------------------------------------|


E||-----------7--------6------------------|
B||-----9--------9--------9---------------|
G||--8-----8--------8--------8-----12-----|
D||-----------------------------8------8--| x2
A||---------------------------------------|
E||---------------------------------------|


E||------|
B||--99--|
G||--99--|
D||------|
A||------|
E||------|



4:18 - 4:29
Guitar 1:
E||----------11-------9-------7----------------7-------6-------------|
B||-------9--------9-------9-----9----------9-------9-------9---11~--|
G||--9------------------------------9--8------------------------9~---|
D||-------------------------------------------------------------11~--|
A||------------------------------------------------------------------|
E||------------------------------------------------------------------|



4:30 - 4:33
Guitar 1:
E||--6---6--66---6--66---6--66---|
B||--7---7--77---7--77---7--77---|
G||--6---6--66---6--66---6--66---|
D||--8---8--88---8--88---8--88---|
A||--x---x--xx---x--xx---x--xx---|
E||--7---7--77---7--77---7--77---|


Guitar 2:
E||------------------------------|
B||--7---7--77---7--77---7--77\--|
G||--6---6--66---6--66---6--66\--|
D||--8---8--88---8--88---8--88\--|
A||------------------------------|
E||------------------------------|



4:34 - 4:59
Guitar 1:
E||-------------------------------------------14-----------------12-11-12-14-12-11-12-11-----|
B||----------------------------------12-11-12----12-11-12-11-12--------------------------14--|
G||-----------------11---13--11--------------------------------------------------------------|
D||--9h11---11h13----------------14----------------------------------------------------------|
A||------------------------------------------------------------------------------------------|
E||------------------------------------------------------------------------------------------|


E||--12-11---------------------------------------14------14--16-18-19--17h18-----------------|
B||--------14--------------------------12h14/16------16-----------------------16~----14/16~--|
G||-----------13-11-13/16~-------11h13-------------------------------------------------------|
D||------------------------------------------------------------------------------------------|
A||------------------------------------------------------------------------------------------|
E||------------------------------------------------------------------------------------------|


E||--------14----------16-------------------------------18-16-18-19-18-16-18-16-14-16-14-----|
B||--14h16-------14h16----------14-16-17-16-14-------------------------------------------17--|
G||--------------------------16----------------16~-------------------------------------------|
D||------------------------------------------------------------------------------------------|
A||------------------------------------------------------------------------------------------|
E||------------------------------------------------------------------------------------------|


E||--------------16----------------16-------------14h16p14-------------------14h16p14-----------|
B||--16-17-16-14----17-16-17-16-14----17-14h16p14----------14h16p14-14h16p14----------14h16p14--|
G||---------------------------------------------------------------------------------------------|
D||---------------------------------------------------------------------------------------------|
A||---------------------------------------------------------------------------------------------|
E||---------------------------------------------------------------------------------------------|


E||---------------------------191919191919191919191919--|
B||--161616161616161616161616-161616161616161616161616--|
G||-----------------------------------------------------|
D||-----------------------------------------------------|
A||-----------------------------------------------------|
E||-----------------------------------------------------|



Guitar 2:
E||--191919191919191919191919---------------------------14h16p14-------------------14h16p14-----------|
B||--191919191919191919191919-16161616161616~--14h16p14----------14h16p14-14h16p14----------14h16p14--|
G||---------------------------------------------------------------------------------------------------|
D||---------------------------------------------------------------------------------------------------|
A||---------------------------------------------------------------------------------------------------|
E||---------------------------------------------------------------------------------------------------|


E||-------------------16-18-19-18-16-18--------------------------16~---------14~----------------------|
B||--16~---14/16~------------------------------14-16-17-16-14----16~---16p14-------16p14-16~--14/16~--|
G||-------------------------------------16~-------------------16--------------------------------------|
D||---------------------------------------------------------------------------------------------------|
A||---------------------------------------------------------------------------------------------------|
E||---------------------------------------------------------------------------------------------------|


E||--18---19---18-16-14--------14--------------------------------------11-12----11-12-11-12-14-12-11--|
B||-----------------------16--------16--14-12-------12~-------------12-------14-----------------------|
G||-------------------------------------------13-11--------13-11-13-----------------------------------|
D||---------------------------------------------------------------------------------------------------|
A||---------------------------------------------------------------------------------------------------|
E||---------------------------------------------------------------------------------------------------|


E||--12----------------11-----------------------------------|
B||-----12-11-12-11-12----12-11-12--------------------------|
G||-------------------------------------11--13--11~---------|
D||---------------------------------14-----------------13~--|
A||---------------------------------------------------------|
E||---------------------------------------------------------|



5:00 - 5:09
Guitar 1:
E||-------------------------------|-------------------------------|
B||-------------------------------|-------------------------------|
G||--11---11---11---111111111111--|--11---11---11---111111111111--|
D||--x----x----x----x-x-x-x-x-x---|--x----x----x----x-x-x-x-x-x---|
A||--13---13---13---131313131313--|--13---13---13---131313131313--|
E||-------------------------------|-------------------------------|


E||-------------------------------|-----------------------------|
B||-------------------------------|-----------------------------|
G||--11---11---11---111111111111--|--11---11---11---11111111~\--|
D||--x----x----x----x-x-x-x-x-x---|--x----x----x----x-x-x-x--\--|
A||--13---13---13---131313131313--|--13---13---13---13131313~\--|
E||-------------------------------|-----------------------------|


Guitar 2:
E||--4---4---4---444444--|--4---4---4---444444--|
B||--4---4---4---444444--|--4---4---4---444444--|
G||--4---4---4---444444--|--4---4---4---444444--|
D||--6---6---6---666666--|--6---6---6---666666--|
A||--6---6---6---666666--|--6---6---6---666666--|
E||--4---4---4---444444--|--4---4---4---444444--|


E||--4---4---4---444444--|--4---4---4---4444~\--|
B||--4---4---4---444444--|--4---4---4---4444~\--|
G||--4---4---4---444444--|--4---4---4---4444~\--|
D||--6---6---6---666666--|--6---6---6---6666~\--|
A||--6---6---6---666666--|--6---6---6---6666~\--|
E||--4---4---4---444444--|--4---4---4---4444~\--|



5:10 - 5:37
Guitar 1:
E||----------------------------------|------------0-----------------0~--|
B||------------1-----------------1~--|----------------------------------|
G||---------4-----4-----------4------|---------2-----2-----------2------|
D||------2-----------2-----2---------|------3-----------3-----3---------|
A||---3-----------------3------------|--/5-----------------5------------|
E||----------------------------------|----------------------------------|


E||----------------------------------|------------------------------------|
B||------------8-----------------8~--|------------10-----------------10~--|
G||---------5-----5-----------5------|---------9------9-----------9-------|
D||------6-----------6-----6---------|------7------------7-----7----------|
A||--/7-----------------7------------|--/8------------------8-------------|
E||----------------------------------|------------------------------------|


E||------------------------------|
B||-------------12----------12~--|
G||---------10------10------10~--|
D||------9--------------9---9~---|
A||--10---------------------10~--|
E||------------------------------|



Guitar 2:
E||------------7------------------7~--|--------------12----------------------10~--|
B||---------8-----8------------8------|----------12------12--------------12-------|
G||------9-----------9------9---------|------12--------------12------12-----------|
D||--10-----------------10------------|--12----------------------12---------------|
A||-----------------------------------|-------------------------------------------|
E||-----------------------------------|-------------------------------------------|


E||------------8------------------7~--|-----------7-----------------5~--|
B||---------9-----9------------9------|--------5-----5-----------5------|
G||------9-----------9------9---------|-----5-----------5-----5---------|
D||--10-----------------10------------|--7-----------------7------------|
A||-----------------------------------|---------------------------------|
E||-----------------------------------|---------------------------------|


E||-----------5---------3~--|
B||--------3-----3------3~--|
G||-----4-----------4---4~--|
D||--5------------------5~--|
A||-------------------------|
E||-------------------------|




Tablature Legend
----------------
 h   hammer-on
 p   pull-off
 b   bend
 pb  pre-bend
 r   release bend
 ~   hold / vibrato
 .   palm mute
 /   slide up
 \   slide down
 *   pinch harmonic
 '   natural harmonic
 x   mute note
 T   tap
Добавлено: 11.05.2016
Другие материалы по этой песне:
  • Аккорды и текст

Страница создана 11.05.2016
http://primanota.ru/hail-sun/will-they-blame-me-if-you-go-disappearing-chords.htm
Привет, Гость.
Предлагаем пройти революционный курс по гитаре.
Подарок от PrimaNota.Ru, забирай!