PrimaNota.ru - самый крупный в мире бесплатный архив песенных текстов, аккордов, табулатур и нот


H2o - Like A Prayer - таба, видео

Регистрация Запомнить меня
Войти через:  Facebook Google Twitter Vk Yandex Mail.ru

H2o - Like A Prayer - таба, видео

Печатать
Просмотров: 253
Уроки эстрадного вокала в Санкт-Петербурге
ARCHIVE: h2o - like a prayer
:: Back to h2o tabs ::
[E-TABS] http://www.e-tabs.org
Hourly updated guitar tabs archive


Rank :: Comments [1] :: Mail to a Friend :: Update :: Print 



-------------------------------------------------------------------------------
                                LIKE A PRAYER - H2O
-------------------------------------------------------------------------------

    INTRO/VERSE play 4 times
E||--------------------------------------------------------------------------------------
B||--10----------------10-----------------10----------------------------8--------------9-
G||-------10----------------10-----------------10-------------------9--------------9-----
D||------------12----------------12-----------------12---------10-------------10---------
A||--------------------------------------------------------------------------------------
E||--------------------------------------------------------------------------------------

    BUILD UP play once
("...feels like, HOME")
E---------------------------------------------------------------------------------
B---------------------------------------------------------------------------------
G------------7---7---7---7---7---7---7---7---7---7---7---7---7---7---7---7--------
D------------7---7---7---7---7---7---7---7---7---7---7---7---7---7---7---7--------
A------------5---5---5---5---5---5---5---5---5---5---5---5---5---5---5---5--------
E------------5---5---5---5---5---5---5---5---5---5---5---5---5---5---5---5--------
                 \--pm---/       \--pm---/       \--pm---/       \--pm---/
    
        CHORUS play 2 times
("When you call my name....")
E------------------------------------------------------------------------------------
B------------------------------------------------------------------------------------
G----10---10---10---10---10---10---10---10-------------------------------------------
D----10---10---10---10---10---10---10---10-----10---10---10---10---10---10---10---10-
A-----8----8----8----8----8----8----8----8-----10---10---10---10---10---10---10---10-
E-----------------------------------------------8----8----8----8----8----8----8----8-
            \----pm---/                               \----pm---/ 

E---------------------------------------------------------------------------------
B---------------------------------------------------------------------------------
G---------------------------------------------------------------------------------
D----8---8---8---8---8---8---8---8-----7---7---7---7---7---7---7---7--------------
A----8---8---8---8---8---8---8---8-----7---7---7---7---7---7---7---7--------------
E----6---6---6---6---6---6---6---6-----5---5---5---5---5---5---5---5--------------
         \---pm--/                         \---pm--/ 

SECOND VERSE play twice
("I hear your voice.....")
E------------------------------------------------------------------------------------------
B------------------------------------------------------------------------------------------
G--------7---10----------7---10-------------10-------------10--------------9-------------9-
D----7---------------7------------------8--------------8---------------7-------------7-----
A-----------------------------------8--------------8---------------7-------------7---------
E------------------------------------------------------------------------------------------

E---------------------------------------------------------------------------------
B---------------------------------------------------------------------------------
G---------------10------------------10--------------------------------------------
D----------8------------------8---------------------------------------------------
A-----8------------------8--------------------------------------------------------
E---------------------------------------------------------------------------------

BRIDGE play twice
("....Feels like Flying! I close my eyes...")
E---------------------------------------------------------------------------------------
B---------------------------------------------------------------------------------------
G----------------------7---7---7---7----------------------------------------------------
D----------------------7---7---7---7----8---8---8---8----7---7---7---7----8---8---8---8-
A----------------------5---5---5---5----8---8---8---8----7---7---7---7----8---8---8---8-
E---------------------------------------6---6---6---6----5---5---5---5----6---6---6---6-

then play Chorus 2 times, then

play second verse 2 times, then

play bridge twice, then

play chorus four times, then

ANOTHER BUILD UP
**=play this note a lot
E---------------------------------------------------------------------------------
B---------------------------------------------------------------------------------
G-----**-7-----------------------7---7-7-7-7-7-7-7--------------------------------
D--------7--------then----play --7---7-7-7-7-7-7-7---about 4 times----------------
A--------5-----------------------5---5-5-5-5-5-5-5--------------------------------
E---------------------------------------------------------------------------------
                                     \-----pm----/       

RIFF THING (running out of names)
    *=play about 16 times palm muted
E---------------------------------------------------------------------------------
B---------------------------------------------------------------------------------
G-------7---7----10---10----------------------------------------------------------
D-------7---7----10---10----8---8----7---7----8---8----7---7----8---8---------*10-
A-------5---5-----8----8----8---8----7---7----8---8----7---7----8---8----------10-
E---------------------------6---6----5---5----6---6----5---5----6---6-----------8-

then play chorus 4 times WITHOUT palm muting

then play the riff thing one more time

END
E------------------------------||
B------------------------------||
G-----7------------------7-----||
D-----7-(let ring)-------7-----||
A-----5------------------5-----||
E------------------------------||

-------------------------------------------------------------------------------
Добавлено: 19.04.2012
Другие материалы по этой песне:

Страница создана 19.04.2012
http://primanota.ru/h2o/like-a-prayer-chords.htm
Привет, Гость.
Предлагаем пройти революционный курс по гитаре.
Подарок от PrimaNota.Ru, забирай!