PrimaNota.ru - самый крупный в мире бесплатный архив песенных текстов, аккордов, табулатур и нот


H R Jothipala - Durakathanayakin - таба, видео

Регистрация Запомнить меня
Войти через:  Facebook Google Twitter Vk Yandex Mail.ru

H R Jothipala - Durakathanayakin - таба, видео

Печатать
Просмотров: 131
 ----------------------------------------------------------------- 
                Durakathanayakin - H R Jothipala
----------------------------------------------------------------- 

Tabbed by: laviru93doodle a.k.a Laviru K. (Paris)

Here is the link for the original song : https://www.youtube.com/watch?v=4yJdNF-qArY
Try to launch Autoscroll and play along with the music.

Intro/Riff:

e|---------------------|----------------|------------------------|
B|---------------------|------0-1--3--0-|---1-0------------------|
G|-----0-2-0-----0-2-4-|----2-----------|-2-----2-0--------------|
D|--0---------4--------|-4--------------|------------------------|x2
A|---------------------|----------------|------------------------|
E|---------------------|----------------|------------------------|

e|--------------------------|--------------|---------------------|
B|-0-0-0-0-1-0--------------|--------------|--0-0-1-0-------0----|
G|--------------2-0---------|------2-----0-|-----------2-0-------|
D|--------------------4-3-4-|-0-4-----4----|---------------------|
A|--------------------------|--------------|---------------------|
E|--------------------------|--------------|---------------------|


e|--------------------------|--------------|---------------------|
B|-0-0-0-0-1-0--------------|--------------|---------------------|
G|--------------2-0---------|------2-----0-|--4-2-0-----0--------|
D|--------------------4-3-4-|-0-4-----4----|---------4-----0-----|
A|--------------------------|--------------|---------------------|
E|--------------------------|--------------|---------------------|

Chorus:

Durakathanayakin...
e|-----0-1-2--|
B|--3---------|
G|------------|
D|------------|
A|------------|
E|------------|

...mama oba amathami
e|------------|
B|-------0-1--|
G|--0-2-------|
D|------------|
A|------------|
E|------------|

Hamuwiya nohaki nisa
e|-----------------------------|
B|-----0-1-0-------0-1-0-------|
G|--0---------2-0---------2-0--|
D|-----------------------------|
A|-----------------------------|
E|-----------------------------|

Mage hitha hadunana...
e|-----0-1-2--|
B|--3---------|
G|------------|
D|------------|
A|------------|
E|------------|

...oba piligaththada

Athamun kiyana musa
e|-----------------------------|
B|-----0-1-0-------0-1-0-------|
G|--0---------2-0---------2-0--|
D|-----------------------------|
A|-----------------------------|
E|-----------------------------|

Riff:

e|---------------------|----------------|------------------------|
B|---------------------|------0-1--3--0-|---1-0------------------|
G|-----0-2-0-----0-2-4-|----2-----------|-2-----2-0--------------|
D|--0---------4--------|-4--------------|------------------------|x2
A|---------------------|----------------|------------------------|
E|---------------------|----------------|------------------------|

e|--------------------------|--------------|---------------------|
B|-0-0-0-0-1-0--------------|--------------|--0-0-1-0-------0----|
G|--------------2-0---------|------2-----0-|-----------2-0-------|
D|--------------------4-3-4-|-0-4-----4----|---------------------|
A|--------------------------|--------------|---------------------|
E|--------------------------|--------------|---------------------|

e|--------------------------|--------------|---------------------|
B|-0-0-0-0-1-0--------------|--------------|---------------------|
G|--------------2-0---------|------2-----0-|--4-2-0-----0--------|
D|--------------------4-3-4-|-0-4-----4----|---------4-----0-----|
A|--------------------------|--------------|---------------------|
E|--------------------------|--------------|---------------------|

Verse 1:

Sayurata rala...
e|------------|
B|---------0--|
G|--0-2-3-----|
D|------------|
A|------------|
E|------------|

...meniweralata rali meni
e|------------|
B|-0-1-1-0----|
G|----------2-|
D|------------|
A|------------|
E|------------|

Apa badila unne
e|---------------------------------|
B|--3--3-0--0-----0-1-3-1-0-----1--|
G|-------------2-------------2-----|
D|---------------------------------|
A|---------------------------------|
E|---------------------------------|

Thotupala harayana...
e|------------|
B|-3/5---4-3--|
G|------------|
D|------------|
A|------------|
E|------------|

...naukawak meni
e|-----0-1-2--|
B|--3---------|
G|------------|
D|------------|
A|------------|
E|------------|

Oba adila yanne
e|-----------------------------|
B|-----0-1-0-------0-1-0-------|
G|--0---------2-0---------2-0--|
D|-----------------------------|
A|-----------------------------|
E|-----------------------------|

Riff:

e|---------------------|----------------|------------------------|
B|---------------------|------0-1--3--0-|---1-0------------------|
G|-----0-2-0-----0-2-4-|----2-----------|-2-----2-0--------------|
D|--0---------4--------|-4--------------|------------------------|x2
A|---------------------|----------------|------------------------|
E|---------------------|----------------|------------------------|

e|--------------------------|--------------|---------------------|
B|-0-0-0-0-1-0--------------|--------------|--0-0-1-0-------0----|
G|--------------2-0---------|------2-----0-|-----------2-0-------|
D|--------------------4-3-4-|-0-4-----4----|---------------------|
A|--------------------------|--------------|---------------------|
E|--------------------------|--------------|---------------------|


e|--------------------------|--------------|---------------------|
B|-0-0-0-0-1-0--------------|--------------|---------------------|
G|--------------2-0---------|------2-----0-|--4-2-0-----0--------|
D|--------------------4-3-4-|-0-4-----4----|---------4-----0-----|
A|--------------------------|--------------|---------------------|
E|--------------------------|--------------|---------------------|

Verse 2:

Mata thava mathakai...
e|------------|
B|---------0--|
G|--0-2-3-----|
D|------------|
A|------------|
E|------------|

...mage mul geethaye
e|------------|
B|-0-1-1-0----|
G|----------2-|
D|------------|
A|------------|
E|------------|

Thanuwa kiya dunna
e|---------------------------------|
B|--3--3-0--0-----0-1-3-1-0-----1--|
G|-------------2-------------2-----|
D|---------------------------------|
A|---------------------------------|
E|---------------------------------|

Yana thana nirathuru...
e|------------|
B|-3/5---4-3--|
G|------------|
D|------------|
A|------------|
E|------------|

...pahanak aragena
e|-----0-1-2--|
B|--3---------|
G|------------|
D|------------|
A|------------|
E|------------|

Pasupasa piya manna
e|-----------------------------|
B|-----0-1-0-------0-1-0-------|
G|--0---------2-0---------2-0--|
D|-----------------------------|
A|-----------------------------|
E|-----------------------------|

Riff:

e|---------------------|----------------|------------------------|
B|---------------------|------0-1--3--0-|---1-0------------------|
G|-----0-2-0-----0-2-4-|----2-----------|-2-----2-0--------------|
D|--0---------4--------|-4--------------|------------------------|x2
A|---------------------|----------------|------------------------|
E|---------------------|----------------|------------------------|

e|--------------------------|--------------|---------------------|
B|-0-0-0-0-1-0--------------|--------------|--0-0-1-0-------0----|
G|--------------2-0---------|------2-----0-|-----------2-0-------|
D|--------------------4-3-4-|-0-4-----4----|---------------------|
A|--------------------------|--------------|---------------------|
E|--------------------------|--------------|---------------------|


e|--------------------------|--------------|---------------------|
B|-0-0-0-0-1-0--------------|--------------|---------------------|
G|--------------2-0---------|------2-----0-|--4-2-0-----0--------|
D|--------------------4-3-4-|-0-4-----4----|---------4-----0-----|
A|--------------------------|--------------|---------------------|
E|--------------------------|--------------|---------------------|

Verse 3:

Obamai ave...
e|------------|
B|---------0--|
G|--0-2-3-----|
D|------------|
A|------------|
E|------------|

...obamai yanne
e|------------|
B|-0-1-1-0----|
G|----------2-|
D|------------|
A|------------|
E|------------|

Maa ethanama ehemai
e|---------------------------------|
B|--3--3-0--0-----0-1-3-1-0-----1--|
G|-------------2-------------2-----|
D|---------------------------------|
A|---------------------------------|
E|---------------------------------|

Nidukin inu mana...
e|------------|
B|-3/5---4-3--|
G|------------|
D|------------|
A|------------|
E|------------|

...oba sathutin nam
e|-----0-1-2--|
B|--3---------|
G|------------|
D|------------|
A|------------|
E|------------|

Mage sathutada eyamai
e|-----------------------------|
B|-----0-1-0-------0-1-0-------|
G|--0---------2-0---------2-0--|
D|-----------------------------|
A|-----------------------------|
E|-----------------------------|

Chorus:

Durakathanayakin...
e|-----0-1-2--|
B|--3---------|
G|------------|
D|------------|
A|------------|
E|------------|

...mama oba amathami
e|------------|
B|-------0-1--|
G|--0-2-------|
D|------------|
A|------------|
E|------------|

Hamuwiya nohaki nisa
e|-----------------------------|
B|-----0-1-0-------0-1-0-------|
G|--0---------2-0---------2-0--|
D|-----------------------------|
A|-----------------------------|
E|-----------------------------|

Mage hitha hadunana...
e|-----0-1-2--|
B|--3---------|
G|------------|
D|------------|
A|------------|
E|------------|

...oba piligaththada

Athamun kiyana musa
e|-----------------------------|
B|-----0-1-0-------0-1-0-------| Repeat this lick and fade into a G chord
G|--0---------2-0---------2-0--|
D|-----------------------------|
A|-----------------------------|
E|-----------------------------| 

I Hope you Enjoyed playing it ! :D
Добавлено: 13.09.2015
Вам также может быть интересно:
Другие материалы по этой песне:
  • Аккорды и текст

Страница создана 13.09.2015
http://primanota.ru/h-r-jothipala/durakathanayakin-chords.htm
Привет, Гость.
Предлагаем пройти революционный курс по гитаре.
Подарок от PrimaNota.Ru, забирай!