PrimaNota.ru - самый крупный в мире бесплатный архив песенных текстов, аккордов, табулатур и нот


H Is Orange - Nothing All The Time - таба, видео

Регистрация Запомнить меня
Войти через:  Facebook Google Twitter Vk Yandex Mail.ru

H Is Orange - Nothing All The Time - таба, видео

Печатать
Просмотров: 214
Song: Nothing All the Time
Band: H is Orange
Album: I think it's called Thrill of Escape
***Featured on the Video Game Guitar Hero World Tour

http://www.hiomusic.com/

*The above link is the official band's website.

Tuning: Half-Step Down
eb,Ab,Db,Gb,Bb,Eb


****** = Palm Mute
b = bend
~~~~~ = sustain

****IMPORTANT!!!! PLEASE PLEASE PLEASE READ ALL CAPTIONS!!!!!!!!!!********


INTRO

Eb|-------------------------------------------|
Bb|-16-16-16-14-14-14-------------------------|
Gb|-------------------13-13-13-13-13-13-13-13-|
Db|-------------------------------------------|
Ab|-------------------------------------------|
eb|-------------------------------------------|


Eb|--------------------------------------------|
Bb|-17-17-17-16-16-16--------------------------|
Gb|-------------------16-16-16-16-16-16-16-16--|
Db|--------------------------------------------|
Ab|--------------------------------------------|
eb|--------------------------------------------|


This part is NOT at a faster tempo, I just had to fit it
all on 1 line XD
These are 13's, 14's and 16's, not 1's, 3's, 4's, and 6's.
Eb|----------------------------------------------------------------|
Bb|161616141414----141414------------------------------------------|
Gb|------------1616------161616-13131313131313131313131313131313---|
Db|----------------------------------------------------------------|
Ab|----------------------------------------------------------------|
eb|----------------------------------------------------------------|

Repeat the above again but instead of playing the last bar,
directly above, play:

These are 13's, 14's and 16's, not 1's, 3's, 4's, and 6's.
Eb|----------------------------------16b---------------------------|
Bb|161616141414----141414------------------------------------------|
Gb|------------1616------161616-1313-------------------------------|
Db|----------------------------------------------------------------|
Ab|----------------------------------------------------------------|
eb|----------------------------------------------------------------|

VERSE

Eb|--------------------------------|
Bb|-9~-5~--------------------------|
Gb|-x~-x~------------------8---88b-| slight bend
Db|-6~-2~---6-6-9-6-99-6-6---6-----|
Ab|--------------------------------|
eb|--------------------------------|
            ********************

Eb|-------------------------------| Repeat everything above this bar.
Bb|-9~-5~-------------------------| Do not play this bar on the repeat.
Gb|-x~-x~------------------8------| Instead play the bar below this one:
Db|-6~-2~---6-6-9-6-99-4-4---4-66-|
Ab|-------------------------------|
eb|-------------------------------|
            ********************

Eb|---------------------------|
Bb|-9~-5~---------------7---9-|
Gb|-x~-x~-----------8---------|
Db|-6~-2~---6-6-9-6---6---6---|
Ab|---------------------------|
eb|---------------------------|
            *******   *   *

CHORUS

Eb|----------------------------------------------|
Bb|----------------------------------------------|
Gb|----------------------------------------------|
Db|-------13-------11-------13-------11--------9-|
Ab|-11-11-11-11-11-11-11-11-11-11-11-11-11-11-11-|
eb|----------------------------------------------|
    ********************************************
Eb|----------------------------|
Bb|----------------------------|
Gb|----------------------------|
Db|-------16-------16-------16-|
Ab|-14-14-14-14-14-14-14-14-14-|
eb|----------------------------|
    **************************

REPEAT THE CHORUS AGAIN.

PRE-VERSE

Eb|----------------------------------------|
Bb|-9-----5------14------9------5------16--|
Gb|-x-----x-------x------x------x-------x--|
Db|-6-----2------11------6------2------13--|
Ab|----------------------------------------|
eb|----------------------------------------|

VERSE 2

HEAVY DISTORTION

Eb|---------------------------| Repeat another 2 times after
Bb|---------------------------| after you play this.
Gb|---------------------------|
Db|-6~--2~------------------2-|
Ab|-6~--2~--2---2---2---2---2-|
eb|-4~--0~--0-x-0-x-0-x-0-x-0-|

Chorus 2 (Play 4x)

Eb|----------------------------------------------|
Bb|----------------------------------------------|
Gb|----------------------------------------------|
Db|-------13-------11-------13-------11--------9-|
Ab|-11-11-11-11-11-11-11-11-11-11-11-11-11-11-11-|
eb|----------------------------------------------|
    ********************************************
Eb|----------------------------|
Bb|----------------------------|
Gb|----------------------------|
Db|-------16-------16-------16-|
Ab|-14-14-14-14-14-14-14-14-14-|
eb|----------------------------|
    **************************

RHYTHM GUITAR FOR CHORUS

Eb|-------------------------------------|
Bb|-------------------------------------|
Gb|-------------------------------------|
Db|-------------------------------------|
Ab|-6666666666666666-9999999999999999---|
eb|-4444444444444444-7777777777777777---|
    *********************************


BRIDGE/VERSE 3

There is some sort of effect at this part (possibly tremolo picking??) but I'm not sure
it is.  Whatever though, I still have it for you XD.

Eb|---------------------| Repeat this another 3 times after
Bb|-------9~~~~---------| you play it the first time.
Gb|---------------------|
Db|-6~~~---------9~~~~--|
Ab|---------------------|
eb|---------------------|

OUTRO

Eb|--------------------------------------------|
Bb|-16-16-16-14-14-14--------------------------|
Gb|-------------------13-13-13-13-13-13-13-13--|
Db|--------------------------------------------|
Ab|--------------------------------------------|
eb|--------------------------------------------|

Eb|--------------------------------------------|
Bb|-17-17-17-16-16-16--------------------------|
Gb|-------------------16-16-16-16-16-16-16-16--|
Db|--------------------------------------------|
Ab|--------------------------------------------|
eb|--------------------------------------------|

Eb|-----------------------------------------------------------------|
Bb|-16-16-16-14-14-14-------14-14-14-------------------12-16-19-21b-|
Gb|-------------------16-16----------16-16-16-13-13-----------------|
Db|-----------------------------------------------------------------|
Ab|-----------------------------------------------------------------|
eb|-----------------------------------------------------------------|

OUTRO PART 2

Eb|-------------------------------------------------------------------|
Bb|-17-17-17-16-16-16-------17-17-17-16-16-16----16-16-16-16-14-14-14-|
Gb|-------------------16-16-------------------16----------------------|
Db|-------------------------------------------------------------------|
Ab|-------------------------------------------------------------------|
eb|-------------------------------------------------------------------|

Eb|----------------------------------------------------------------|
Bb|-------14-14-14-------------------------------------------------|
Gb|-13-13----------16-16-16-13-13-13-------------------------------|
Db|----------------------------------------------------------------|
Ab|----------------------------------------------------------------|
eb|----------------------------------------------------------------|

REPEAT outro part 2 another 2 times after you play it once and then play the bridge once
end the song XD.



THANKS FOR RATING/COMMENTING!!!
Добавлено: 16.04.2012
Другие материалы по этой песне:
  • Аккорды и текст

Страница создана 16.04.2012
http://primanota.ru/h-is-orange/nothing-all-the-time-chords.htm
Привет, Гость.
Предлагаем пройти революционный курс по гитаре.
Подарок от PrimaNota.Ru, забирай!