PrimaNota.ru - самый крупный в мире бесплатный архив песенных текстов, аккордов, табулатур и нот


H Hawkline - Sticky Slithers - бас-таба, видео

Регистрация Запомнить меня
Войти через:  Facebook Google Twitter Vk Yandex Mail.ru

H Hawkline - Sticky Slithers - бас-таба, видео

Печатать
Просмотров: 106
H. Hawkline - Sticky Slithers

Structure:
Verse
Pre-chorus
Chorus
1st time bar
Verse
Pre-chorus
Chorus
2nd time bar
Bridge
Outro

Verse
 | 1 + 2 + 3 + 4 + 1 + 2 + 3 + 4 + 1 + 2 + 3 + 4 + 1 + 2 + 3 + 4 +  |
G|------------------------------------------------------------------|
D|-5-5-5-5-5---7---5-5-5-5-5---7---5-5-5-5-5---7---------------7----|
A|-----------5---8-----------5---8-----------5---8---------------8--|
E|-------------------------------------------------6-6-6-6-8-8------|

 | 1 + 2 + 3 + 4 + 1 + 2 + 3 + 4 + 1 + 2 + 3 + 4 + 1 + 2 + 3 + 4 +  |
G|------------------------------------------------------------------|
D|-5-5-5-5-5---7---5-5-5-5-5---7---5-5-5-5-5---7---------------7----|
A|-----------5---8-----------5---8-----------5---8---------------8--|
E|-------------------------------------------------6-6-6-6-8-8------|

 | 1 + 2 + 3 + 4 + 1 + 2 + 3 + 4 + 1 + 2 + 3 + 4 + 1 + 2 + 3 + 4 +  |
G|------------------------------------------------------------------|
D|-5-5-5-5-5---7---5-5-5-5-5---7---5-5-5-5-5---7--------------------|
A|-----------5---8-----------5---8-----------5---8------------------|
E|-------------------------------------------------6-6-6-6-8-8-8-8--|

 | 1 + 2 + 3 + 4 + |
G|-------3---------|
D|---5-5---3---3---|
A|-6---------3-----|
E|-----------------|

Pre-chorus
 | 1 + 2 + 3 + 4 + 1 + 2 + 3 + 4 + 1 + 2 + 3 + 4 + 1 + 2 + 3 + 4 +  |
G|------------------------------------------------------------------|
D|-5-5-5-5-5---7---5-5-5-5-5---7---5-5-5-5-5---7---5-5-5-5-5---7----|
D|-----------5---8-----------5---8-----------5---8-----------5---8--|
E|------------------------------------------------------------------|

Chorus
 | 1 + 2 + 3 + 4 + 1 + 2 + 3 + 4 + 1 + 2 + 3 + 4 + 1 + 2 + 3 + 4 +  |
G|---4-6-5-4---------4-6-5-4---------4-6-5-4---------4-6-5-4--------|
D|-5---------5-3---5---------5-3---5---------5-3---5---------5-3----|
A|------------------------------------------------------------------|
E|------------------------------------------------------------------|

1st time bar
 | 1 + 2 + 3 + 4 + 1 + 2 + 3 + 4 + 1 + 2 + 3 + 4 + 1 + 2 + 3 + 4 +  |
G|------------------------------------------------------------------|
D|-5-5-5-5-5---7---5-5-5-5-5---7---5-5-5-5-5---7---------------7----|
A|-----------5---8-----------5---8-----------5---8---------------8--|
E|-------------------------------------------------6-6-6-6-8-8------|

 | 1 + 2 + 3 + 4 + 1 + 2 + 3 + 4 + 1 + 2 + 3 + 4 + 1 + 2 + 3 + 4 +  |
G|------------------------------------------------------------------|
D|-5-5-5-5-5---7---5-5-5-5-5---7---5-5-5-5-5---7---------------7----|
A|-----------5---8-----------5---8-----------5---8---------------8--|
E|-------------------------------------------------6-6-6-6-8-8------|

2nd time bar
 | 1 + 2 + 3 + 4 + 1 + 2 + 3 + 4 + 1 + 2 + 3 + 4 + 1 + 2 + 3 + 4 +  |
G|-----------------------------------------------------2-0----------|
D|-5-5-5-5-5---0-------------------------------------4-----4-0-4----|
A|-----------------3-3-3-3-3---5---5-5-5-5-5---3---5----------------|
E|------------------------------------------------------------------|

 | 1 + 2 + 3 + 4 + 1 + 2 + 3 + 4 + 1 + 2 + 3 + 4 + 1 + 2 + |
G|---------------------------------------------------------|
D|-5-5-5-5-5---0-------------------------------------------|
A|-----------------3-3-3-3-3---5---5-5-5-5-5---3---5-6-5-3-|
E|---------------------------------------------------------|

Bridge
 | 1 + 2 + 3 + 4 + 1 + 2 + 3 + 4 + 1 + 2 + 3 + 4 + 1 + 2 + 3 + 4 + |
G|-----------------------------------------------------------------|
D|---------------------------------1---------------0---------------|
A|-1---------------------------------------------------------------|
E|-------------------------------------------------------------3---|

 | 1 + 2 + 3 + 4 + 1 + 2 + 3 + 4 + 1 + 2 + 3 + 4 + |
G|-------------------------------------------------|
D|---------------------------------3---------------|
A|-3-----------------------------------------------|
E|-----------------3-------------------------------|

Outro
 | 1 + 2 + 3 + 4 + 1 + 2 + 3 + 4 + 1 + 2 + 3 + 4 + 1 + 2 + 3 + 4 +  |
G|------------------------------------------------------------------|
D|-------------------------------------------------------------7----|
A|---------------------------------------------------------------8--|
E|-------------------------------------------------6-6-6-6-8-8------|

 | 1 + 2 + 3 + 4 + 1 + 2 + 3 + 4 + 1 + 2 + 3 + 4 + 1 + 2 + 3 + 4 +  |
G|------------------------------------------------------------------|
D|-5-5-5-5-5---7---5-5-5-5-5---7---5-5-5-5-5---7---------------7----|
A|-----------5---8-----------5---8-----------5---8---------------8--|
E|-------------------------------------------------6-6-6-6-8-8------|

 | 1 + 2 + 3 + 4 + 1 + 2 + 3 + 4 + 1 + 2 + 3 + 4 + 1 + 2 + 3 + 4 +  |
G|------------------------------------------------------------------|
D|-5-5-5-5-5---7---5-5-5-5-5---7---5-5-5-5-5---7---------------7----|
A|-----------5---8-----------5---8-----------5---8---------------8--|
E|-------------------------------------------------6-6-6-6-8-8------|

 | 1 + 2 + 3 + 4 + 1 + 2 + 3 + 4 + 1 + 2 + 3 + 4 + 1 + 2 + 3 + 4 +  |
G|------------------------------------------------------------------|
D|-5-5-5-5-5---7---5-5-5-5-5---7---5-5-5-5-5---7---------------7----|
A|-----------5---8-----------5---8-----------5---8---------------8--|
E|-------------------------------------------------6-6-6-6-8-8------|

 | 1 + 2 + 3 + 4 + 1 + 2 + 3 + 4 + 1 + 2 + 3 + 4 + 1 + 2 + 3 + 4 +  |
G|------------------------------------------------------------------|
D|-5-5-5-5-5---7---5-5-5-5-5---7---5-5-5-5-5---7--------------------|
A|-----------5---8-----------5---8-----------5---8------------------|
E|-------------------------------------------------6-6-6-6-8-8-8-8--|

 | 1 + 2 + 3 + 4 + 1 + 2 + 3 + 4 + 1 + 2 + 3 + 4 + 1 + 2 + 3 + 4 + |
G|-------3-------5-------7-------8-------10------12----------------|
D|---5-6-----7-8-----109-----1011----1213----1415------------------|
A|-6-------8-------9-------11------13------15---------etc.---------|
E|-----------------------------------------------------------------|
Добавлено: 17.05.2016
Другие материалы по этой песне:
  • Аккорды и текст

Страница создана 17.05.2016
http://primanota.ru/h-hawkline/sticky-slithers-chords.htm
Привет, Гость.
Предлагаем пройти революционный курс по гитаре.
Подарок от PrimaNota.Ru, забирай!