PrimaNota.ru - самый крупный в мире бесплатный архив песенных текстов, аккордов, табулатур и нот


H Hawkline - Rainy Summer - бас-таба

Регистрация Запомнить меня
Войти через:  Facebook Google Twitter Vk Yandex Mail.ru

H Hawkline - Rainy Summer - бас-таба

Печатать
Просмотров: 43
H. Hawkline - Rainy Summer

Structure:
Verse x4
Chorus
Verse x6
Chorus 2
Verse x3
Outro

Verse
 | 1 + 2 + 3 + 4 + 1 + 2 + 3 + 4 + 1 + 2 + 3 + 4 + 1 + 2 + 3 + 4 +  |
G|------------------------------------------------------------------|
D|------------------------------------------------------------------|
A|-7-----7-7-7-7-------------------7-----7-7-7-7--------------------|
E|-------------------5-5-7-7-------------------------5-5-7-7--------|

Chorus
 | 1 + 2 + 3 + 4 + 1 + 2 + 3 + 4 + 1 + 2 + 3 + 4 + 1 + 2 + 3 + 4 +  |
G|------------------------------------------------------------------|
D|-------------------------------------------4-2-----------------7--|
A|-5-------5---3-2-----------------2-------2-------5-----5-5---5----|
E|-------5---5-----3-----3-3---5-----------------------------5------|

 | 1 + 2 + 3 + 4 + 1 + 2 + 3 + 4 + 1 + 2 + 3 + 4 + 1 + 2 + 3 + 4 + 1 + 2 + 3 + 4 + |
G|---------------------------------------------------------------------------------|
D|---------------------------------------------4-----------------------------------|
A|-5-----5-5---3-2-----------------2-----2-2-------0-----0-0-------0-----0-0-------|
E|-----------5-----3-----3-3---5---------------------------------------------------|

Chorus 2
 | 1 + 2 + 3 + 4 + 1 + 2 + 3 + 4 + 1 + 2 + 3 + 4 + 1 + 2 + 3 + 4 +  |
G|------------------------------------------------------------------|
D|-----------------------------------------4---4\----------7--------|
A|-5-------5---3-2-----------------2-----2---2-----5-----5-----8----|
E|-------5---5-----3-----3-3---5------------------------------------|

 | 1 + 2 + 3 + 4 + 1 + 2 + 3 + 4 + 1 + 2 + 3 + 4 + 1 + 2 + 3 + 4 + 1 + 2 + 3 + 4 + |
G|---------------------------------------------------------------------------------|
D|---------------------------------------------4-----------------------------------|
A|-5-----5-5---3-2-----------------2-----2-2-------0-----0-0---0---0-----0-0---0---|
E|-----------5-----3-----3-3---5---------------------------------------------------|

Outro
 | 1 + 2 + 3 + 4 + 1 + 2 + 3 + 4 + 1 + 2 + 3 + 4 + 1 + 2 + 3 + 4 +  |
G|------------------------------------------------------------------|
D|------------------------------------------------------------------|
A|-7-----7-7-7-7-------------------7-----7-7-7-7---------7-7-7-7----|
E|-------------------5-5-7-7----------------------------------------|

 | 1 + 2 + 3 + 4 + 1 + 2 + 3 + 4 + 1 + 2 + 3 + 4 + 1 + 2 + 3 + 4 +  |
G|------------------------------------------------------------------|
D|------------------------------------------------------------------|
A|-------7-7-7-7---------7-7-7-7---------7-7-7-7---------7-7-7-7----|
E|------------------------------------------------------------------|

 | 1 + 2 + 3 + 4 + 1 + 2 + 3 + 4 + 1 + 2 + 3 + 4 + 1 + 2 + 3 + 4 + 1 + 2 + 3 + 4 +  |
G|----------------------------------------------------------------------------------|
D|----------------------------------------------------------------------------------|
A|-------7-7-7-7---------7-7-7-7---------7-7-7-7---------7-7-7-7---7----------------|
E|----------------------------------------------------------------------------------|


I've tabbed the bass lines for the entire album except for Ringfinger and Moddion, so please
check them out.
I did the whole album by ear, so if something doesn't sound right feel free to correct it.
Добавлено: 15.06.2016
Вам также может быть интересно:
Другие материалы по этой песне:
  • Аккорды и текст

Страница создана 15.06.2016
http://primanota.ru/h-hawkline/rainy-summer-chords.htm
Привет, Гость.
Предлагаем пройти революционный курс по гитаре.
Подарок от PrimaNota.Ru, забирай!