PrimaNota.ru - самый крупный в мире бесплатный архив песенных текстов, аккордов, табулатур и нот


H Hawkline - Moons In My Mirror - бас-таба, видео

Регистрация Запомнить меня
Войти через:  Facebook Google Twitter Vk Yandex Mail.ru

H Hawkline - Moons In My Mirror - бас-таба, видео

Печатать
Просмотров: 52
Уроки эстрадного вокала в Санкт-Петербурге
H. Hawkline - Moons In My Mirror

Structure:
Intro/Verse x5
Pre-chorus
Chorus x2
Intro/Verse x5
Pre-chorus
Chorus x4
Intro/Verse x3
Pre Chorus

Intro/Verse
 | 1 + 2 + 3 + 4 + 1 + 2 + 3 + 4 + 1 + 2 + 3 + 4 + 1 + 2 + 3 + 4 +  |
G|------------------------------------------------------------------|
D|-------------0---0---------------------------0---0----------------|
A|-0-2-------0---0-----2---3-------0-2-------0---0-----2---3--------|
E|-----0-3-------------------3-3-------0-3-------------------3-3----|

Pre-chorus
 | 1 + 2 + 3 + 4 + 1 + 2 + 3 + 4 + 1 + 2 + 3 + 4 + 1 + 2 + |
G|---------------------------------------------------------|
D|-------------0---0---------------------------0---0---0---|
A|-0-2-------0---0-----2---3-------0-2-------0---0---------|
E|-----0-3-------------------3-3-------0-3-----------------|

Chorus
 | 1 + 2 + 3 + 4 + 1 + 2 + 3 + 4 + 1 + 2 + 3 + 4 + 1 + 2 + 3 + 4 +  |
G|-----------4-------------------------------4----------------------|
D|-------------7-6-7-6-4---4-------------------7-6-7-6-4---4--------|
A|---9---7---------------7---4-------9---7---------------7---4------|
E|-7---7-----------------------7-5-7---7-----------------------7-5--|
Добавлено: 15.06.2016
Другие материалы по этой песне:
  • Аккорды и текст

Страница создана 15.06.2016
http://primanota.ru/h-hawkline/moons-in-my-mirror-chords.htm
Привет, Гость.
Предлагаем пройти революционный курс по гитаре.
Подарок от PrimaNota.Ru, забирай!