PrimaNota.ru - самый крупный в мире бесплатный архив песенных текстов, аккордов, табулатур и нот


H Hawkline - Isobelle - бас-таба

Регистрация Запомнить меня
Войти через:  Facebook Google Twitter Vk Yandex Mail.ru

H Hawkline - Isobelle - бас-таба

Печатать
Просмотров: 41
H. Hawkline - Isobelle

Structure:
Intro
Intro 2
Verse
Pre-chorus
Chorus
Intro 2 x2
Verse
Pre-chorus
Chorus
Bridge
Intro 2 x6

Intro
 | 1 + 2 + 3 + 4 + 1 + 2 + 3 + 4 +  |
G|---------------------------5---7--|
D|-------------------------7--------|
A|----------------------------------|
E|----------------------------------|

 | 1 + 2 + 3 + 4 + 1 + 2 + 3 + 4 + 1 + 2 + 3 + 4 + 1 + 2 + 3 + 4 +  |
G|-----7---7-5---------------------------7-7-5---5------------------|
D|---------------8-----8---8-7-5---------------7---8---8---8-7-5----|
A|-------------------------------8---5---------------------------8--|
E|------------------------------------------------------------------|

Intro 2
 | 1 + 2 + 3 + 4 + 1 + 2 + 3 + 4 + 1 + 2 + 3 + 4 + 1 + 2 + 3 + 4 +  |
G|-------7-7-5---5-----------------------7-7-5---5------------------|
D|-------------7---8---8---8-7-5---------------7---8---8---8-7-5----|
A|---5---------------------------8---5---------------------------8--|
E|------------------------------------------------------------------|

Verse
 | 1 + 2 + 3 + 4 + 1 + 2 + 3 + 4 + 1 + 2 + 3 + 4 + 1 + 2 + 3 + 4 +  |
G|-------7-7-5---5-----------------------7-7-5---5------------------|
D|-------------7---8---8---8-7-5---------------7---8---8---8-7-5----|
A|---5---------------------------8---5---------------------------8--|
E|------------------------------------------------------------------|x3

 | 1 + 2 + 3 + 4 + 1 + 2 + 3 + 4 + 1 + 2 + 3 + 4 + 1 + 2 + 3 + 4 +  |
G|-------7-7-5---5-----------------------7-7-5---5------------------|
D|-------------7---8---8---8-7-5---------------7---8-8-8-8-8-8-8----|
A|---5---------------------------8---5------------------------------|
E|------------------------------------------------------------------|

Pre-chorus
 | 1 + 2 + 3 + 4 + 1 + 2 + 3 + 4 + 1 + 2 + 3 + 4 + 1 + 2 + 3 + 4 +  |
G|-------3-2---2---0---0---7-5-4-0-0---0---7-5-4-0-0---0---0---0----|
D|-----3------------------------------------------------------------|
A|---5--------------------------------------------------------------|
E|-6----------------------------------------------------------------|

 | 1 + 2 + 3 + 4 + 1 + 2 + 3 + 4 + |
G|-------2-3---3---2---------------|
D|-----3---------------------3-5---|
A|---5---------------------5-----5-|
E|-6-------------------------------|

Chorus
 | 1 + 2 + 3 + 4 + 1 + 2 + 3 + 4 + 1 + 2 + 3 + 4 + 1 + 2 + 3 + 4 +  |
G|-----------------------------0-------------------------------0----|
D|---------2-4-2-------------2-------------2-4-2-------------2------|
A|-5-5-5-5-------3-3-3-3-3-3-----5-5-5-5-5-------3-3-3-3-3-3--------|
E|------------------------------------------------------------------|

 | 1 + 2 + 3 + 4 + 1 + 2 + 3 + 4 + 1 + 2 + 3 + 4 + 1 + 2 + 3 + 4 +  |
G|-----------------------------0-----------------------------5---7--|
D|---------2-4-2-------------2-------------2-4-2-----------7--------|
A|-5-5-5-5-------3-3-3-3-3-3-----5-5-5-5-5-------5-5-5-5-5----------|
E|------------------------------------------------------------------|

Bridge
 | 1 + 2 + 3 + 4 + 1 + 2 + 3 + 4 + 1 + 2 + 3 + 4 + 1 + 2 + 3 + 4 +  |
G|-------3-2---2---0---0---7-5-4-0-0---0---7-5-4-0-0---0---0---0----|
D|-----3-----------------------------------------------------0------|
A|---5--------------------------------------------------------------|
E|-6----------------------------------------------------------------|

 | 1 + 2 + 3 + 4 + 1 + 2 + 3 + 4 + 1 + 2 + 3 + 4 + 1 + 2 + 3 + 4 +  |
G|-------2-3---3---2---2-2-2-----2-2---2-2-2-----2-2---2-2-2--------|
D|-----3---------------------2---------------2---------------2------|
A|---5--------------------------------------------------------------|
E|-6----------------------------------------------------------------|

 | 1 + 2 + 3 + 4 + 1 + 2 + 3 + 4 + 1 + 2 + 3 + 4 + 1 + 2 + 3 + 4 +  |
G|-------3-2---2---0---0---7-5-4-0-0---0---------0-0---0---0---0----|
D|-----3-----------------------------------------------------0------|
A|---5-------------------------------------5-3-2--------------------|
E|-6----------------------------------------------------------------|

 | 1 + 2 + 3 + 4 + 1 + 2 + 3 + 4 + |
G|-------2-3---3---2---------5---7-|
D|-----3-------------------7-------|
A|---5-----------------------------|
E|-6-------------------------------|
Добавлено: 15.06.2016
Другие материалы по этой песне:
  • Аккорды и текст

Страница создана 15.06.2016
http://primanota.ru/h-hawkline/isobelle-chords.htm
Привет, Гость.
Предлагаем пройти революционный курс по гитаре.
Подарок от PrimaNota.Ru, забирай!