PrimaNota.ru - самый крупный в мире бесплатный архив песенных текстов, аккордов, табулатур и нот


H Hawkline - Everybodys On The Line - бас-таба, видео

Регистрация Запомнить меня
Войти через:  Facebook Google Twitter Vk Yandex Mail.ru

H Hawkline - Everybodys On The Line - бас-таба, видео

Печатать
Просмотров: 52
H. Hawkline - Everybody's On The Line

Structure:
Intro
Verse x2
Pre-chorus
Chorus
Verse
Pre-chorus
Chorus x2
Outro

Intro
 | 1 + 2 + 3 + 4 + 1 + 2 + 3 + 4 + 1 + 2 + 3 + 4 + 1 + 2 + 3 + 4 +  |
G|-----------------------------------------------------------5-4----|
D|---------------------------------------------------------------5--|
A|-8---7---3-5-7-3-0---------------8---7---3-5-7-3-0----------------|
E|-----------------------3-3---3/------------------------3-3--------|

 | 1 + 2 + 3 + 4 + 1 + 2 + 3 + 4 + 1 + 2 + 3 + 4 + 1 + 2 + 3 + 4 +  |
G|-------------------------------2----------------------------------|
D|-----------------------------02-----------------------------------|
A|-8---7---3-5-7-3-0---------------8---7---3-5-7-3-0----------------|
E|-----------------------3-3-3---------------------------3-3---3/---|

 | 1 + 2 + 3 + 4 + 1 + 2 + 3 + 4 + 1 + 2 + 3 + 4 + 1 + 2 + 3 + 4 +  |
G|-------------------------------2----------------------------------|
D|-----------------------------02-----------------------------------|
A|-8---7---3-5-7-3-0---------------8---7-3-5-7-5-3-0----------------|
E|-----------------------3-3-3---------------------------3-3---3/---|

Verse
 | 1 + 2 + 3 + 4 + 1 + 2 + 3 + 4 + 1 + 2 + 3 + 4 + 1 + 2 + 3 + 4 +  |
G|------------------------------------------------------------------|
D|------------------------------------------------------------------|
A|-8---7---3-5-7-3-0---------------8---7---3-5-7-3-0----------------|
E|-----------------------3-3---3/------------------------3-3---3/---|

 | 1 + 2 + 3 + 4 + 1 + 2 + 3 + 4 + 1 + 2 + 3 + 4 + 1 + 2 + 3 + 4 +  |
G|-----------------------------------------------------------5-4----|
D|---------------------------------------------------------------5--|
A|-8---7---3-5-7-3-0---------------8---7---3-5-7-3-0----------------|
E|-----------------------3-3---3/------------------------3-3--------|

Pre-chorus
 | 1 + 2 + 3 + 4 + 1 + 2 + 3 + 4 + 1 + 2 + 3 + 4 + 1 + 2 + 3 + 4 +  |
G|------------------------------------------------------------------|
D|-5-----5-5-------4-----4-4----------------------------------------|
A|---------------------------------0-----0-0-------2-----2-2--------|
E|------------------------------------------------------------------|

 | 1 + 2 + 3 + 4 + 1 + 2 + 3 + 4 + 1 + 2 + 3 + 4 + 1 + 2 + 3 + 4 +  |
G|---------------------------------2-----2-2-------2-----2-2--------|
D|-5-----5-5-------4-----4-4-------------------2--------------------|
A|------------------------------------------------------------------|
E|------------------------------------------------------------------|

Chorus
 | 1 + 2 + 3 + 4 + 1 + 2 + 3 + 4 + 1 + 2 + 3 + 4 + 1 + 2 + 3 + 4 +  |
G|-----------------------------------------------------------5-4----|
D|-------------------------------------------------7-----5-5-----5--|
A|-8---7---3-5-7-3-0---------------8---7---3-5-7-3------------------|
E|-----------------------3-3---3/-----------------------------------|

 | 1 + 2 + 3 + 4 + 1 + 2 + 3 + 4 + 1 + 2 + 3 + 4 + 1 + 2 + 3 + 4 +  |
G|-----------------------------------------------------------5-4----|
D|-------------------------------------------------7-----5-5-----5--|
A|-8---7---3-5-7-3-0---------------8---7---3-5-7-3------------------|
E|-----------------------3-3---3/-----------------------------------|

 | 1 + 2 + 3 + 4 + 1 + 2 + 3 + 4 + 1 + 2 + 3 + 4 + 1 + 2 + 3 + 4 +  |
G|------------------------------------------------------------------|
D|-------------------------------------------------7-----5-5--------|
A|-8---7---3-5-7-3-0---------------8---7---3-5-7-3------------------|
E|-----------------------3-3---3/-----------------------------------|

 | 1 + 2 + 3 + 4 + 1 + 2 + 3 + 4 + 1 + 2 + 3 + 4 + 1 + 2 + 3 + 4 +  |
G|-----------------------------------------------------------5-4----|
D|-------------------------- ----------------------7-----5-5-----5--|
A|-8---7---5-7-5-3-0---------------8---7---3-5-7-3------------------|
E|-----------------------3-3---3/-----------------------------------|

Outro
 | 1 + 2 + 3 + 4 + 1 + 2 + 3 + 4 + 1 + 2 + 3 + 4 + 1 + 2 + 3 + 4 +  |
G|------------------------------------------------------------------|
D|-3-----3-3-------2-----2-2-------0-----0-0-------------------5-7--|
A|-------------------------------------------------3-----3-5/7------|
E|------------------------------------------------------------------|

 | 1 + 2 + 3 + 4 + 1 + 2 + 3 + 4 + 1 + 2 + 3 + 4 + 1 + 2 + 3 + 4 +  |
G|------------------------------------------------------------------|
D|-3-----3-3-------2-----2-2-------0-----0-0-------3----------------|
A|-------------3---------------2------------------------------------|
E|------------------------------------------------------------------|
Добавлено: 15.06.2016
Другие материалы по этой песне:
  • Аккорды и текст

Страница создана 15.06.2016
http://primanota.ru/h-hawkline/everybodys-on-line-chords.htm
Привет, Гость.
Предлагаем пройти революционный курс по гитаре.
Подарок от PrimaNota.Ru, забирай!