PrimaNota.ru - самый крупный в мире бесплатный архив песенных текстов, аккордов, табулатур и нот


Gzr - Misfit - таба, видео

Регистрация Запомнить меня
Войти через:  Facebook Google Twitter Vk Yandex Mail.ru

Gzr - Misfit - таба, видео

Печатать
Просмотров: 123
----------------------------------------------------------------------------
______________Misfit-(intro)______________ - GZR____
----------------------------------------------------------------------------
Tabbed by: Kerry Fan1
http://profile.ultimate-guitar.com/Kerry+fan1/

Song: Misfit
Artist: GZR
Album: Ohmwork

Tuning: Standard                                                 

when ever you see--------------------------------------this-->>> |\ 
it means there are 2 guitars                                     ||     
                                                                 ||
                                                                 |/
Intro                                                                
Guitar 1:                                                            
E|-------------------------------------------------------------------|\
B|-------------------------------------------------------------------||
G|-------------------------------------------------------------------||
D|-------------------------------------------------------------------||
A|--5/-7--7----5/-7--7----5/-7--7/-9---9/--10------------------------||
E|--3/-5--5----3/-5--5----3/-5--5/-7---7/--8-------------------------||
                                                                      |
  Guitar 2:                                                           |
E|-------------------------------------------------------------------||
B|-------------------------------------------------------------------||
G|-------------------------------------------------------------------||
D|--5/-7--7----5/-7--7----5/-7--7/-9---9/-10-------------------------||
A|--3/-5--5----3/-5--5----3/-5--5/-7---7/--8-------------------------||
E|-------------------------------------------------------------------|/

Guitar 1:                                                            
E|-------------------------------------------------------------------|\
B|-------------------------------------------------------------------||
G|-------------------------------------------------------------------||
D|-------------------------------------------------------------------||
A|--5/-7--7----5/-7--7----5/-7--7/-9---9/--10------------------------||
E|--3/-5--5----3/-5--5----3/-5--5/-7---7/--8-------------------------||
                                                                      |
  Guitar 2:                                                           |
E|-------------------------------------------------------------------||
B|-------------------------------------------------------------------||
G|-------------------------------------------------------------------||
D|--5/-7--7----5/-7--7----5/-7--7/-9---9/-10-------------------------||
A|--3/-5--5----3/-5--5----3/-5--5/-7---7/--8-------------------------||
E|-------------------------------------------------------------------|/

Guitar 1:                                                            
E|-------------------------------------------------------------------|\
B|-------------------------------------------------------------------||
G|-------------------------------------------------------------------||
D|-------------------------------------------------------------------||
A|--5/-7--7----5/-7--7----5/-7--7/-9---9/--10------------------------||
E|--3/-5--5----3/-5--5----3/-5--5/-7---7/--8-------------------------||
                                                                      |
  Guitar 2:                                                           |
E|-------------------------------------------------------------------||
B|-------------------------------------------------------------------||
G|-------------------------------------------------------------------||
D|--5/-7--7----5/-7--7----5/-7--7/-9---9/-10-------------------------||
A|--3/-5--5----3/-5--5----3/-5--5/-7---7/--8-------------------------||
E|-------------------------------------------------------------------|/



****************************************
/ slide
****************************************
Добавлено: 06.03.2012
Другие материалы по этой песне:
  • Аккорды и текст

Страница создана 06.03.2012
http://primanota.ru/gzr/misfit-chords.htm
Привет, Гость.
Предлагаем пройти революционный курс по гитаре.
Подарок от PrimaNota.Ru, забирай!