PrimaNota.ru - самый крупный в мире бесплатный архив песенных текстов, аккордов, табулатур и нот


Gyroscope - Weapon Enemy Friend - бас-таба, видео

Регистрация Запомнить меня
Войти через:  Facebook Google Twitter Vk Yandex Mail.ru

Gyroscope - Weapon Enemy Friend - бас-таба, видео

Печатать
Просмотров: 95
song-weapon enemy friend
tabbed by-poxonaor
email-hazzpoxon@hotmail.com

Even though the person requesting this spelt it wrong i have managed to be a
ble to find this song and what a great song it is :P
PLEASE COMMENT AND RATE
AND SEND REQUESTS TO MY EMAIL ABOVE IF YOU LIKE THIS TAB

it sounds like the bass changes on the a string part of the main riff
but that is only the guitar and what i've tabbed sounds fine in my opinion :)

bass intro/main riff
g----------------------------|
d----------------------------|
a----012-012-----------------|
e-012-------00-11-2-55-44-3--| x3

g-------------------------------|
d-------------------------------|
a----012012-22------------------|
e-012----------00-11-2-55-44-3--|

guitar enters
g----------------------------|
d----------------------------|
a----012-012-----------------|
e-012-------00-11-2-55-44-3--|

g-----------------------------------------------|
d-----------------------------------------------|
a----012012-22----------------------------------|
e-012----------00-11-2-55-44-3--00-11-2-55-44-3-|

verse
g-------------------------------------|
d-------------------------------------|
a-------------------------------------|
e-222-2-22-555-5-55-222-2-22-555-5-55-|

g----------------------------------|
d-4444-4-44-4-4-7777-7-7-6h7-6h7-6-|
a----------------------------------|
e----------------------------------| x2

build up
g-----------|
d-----------|
a-764~-76---|
e--------5~-| x4

chorus
g---------------------------|
d---------------------------|
a-4x32----4x32--------------|
e-----5x32----5x24-012-543~-|

main riff
g----------------------------|
d----------------------------|
a----012-012-----------------|
e-012-------00-11-2-55-44-3--| x2

verse
g----------------------------------|
d-4444-4-44-4-4-7777-7-7-6h7-6h7-6-|
a----------------------------------|
e----------------------------------| x2

g-------------------------------------|
d-------------------------------------|
a-------------------------------------|
e-222-2-22-555-5-55-222-2-22-555-5-55-|

build up
fast pick this pick this
g-------------------------|
d-------------------------|
a-44444-------------------|
e-------55555-55555-55555-|

g-----------|
d-----------|
a-764~-76---|
e--------5~-|
it's hard to tab out the exacts rhythm but at least the notes are right :P
g-----------------------------------------------------------------|
d-----------------------------------------------------------------|
a-444-4-44444-44-444-4-44444-44-4---------------------------------|
e---------------------------------555-5-55555-55-555-5-55-012-543-|

chorus
g---------------------------|
d---------------------------|
a-4x32----4x32--------------|
e-----5x32----5x24-012-543~-|

main riff
g----------------------------|
d----------------------------|
a----012-012-----------------|
e-012-------00-11-2-55-44-3--| x2

g-------------------------------|
d-------------------------------|
a----012012-22------------------|
e-012----------00-11-2-55-44-3--|

g----------------------------|
d----------------------------|
a----012-012-----------------|
e-012-------00-11-2-55-44-3--|

outro
g-------------------|
d-------------------|
a-------------------|
e-00011122-55544433-| x2

g-------------------|
d-------------------|
a-------------------|
e-0~-1~-2~-5~-4~-3~-| x2

g-------------------|
d-------------------|
a-------------------|
e-00011122-55544433-| x2

g-------------------|
d-------------------|
a-------------------|
e-0~-1~-2~-5~-4~-3~-| x2

g---
d---
a---
e-2-

Enjoy :D
Добавлено: 31.07.2012
Другие материалы по этой песне:
  • Аккорды и текст

Страница создана 31.07.2012
http://primanota.ru/gyroscope/weapon-enemy-friend-chords.htm
Привет, Гость.
Предлагаем пройти революционный курс по гитаре.
Подарок от PrimaNota.Ru, забирай!