PrimaNota.ru - самый крупный в мире бесплатный архив песенных текстов, аккордов, табулатур и нот


Gyroscope - These Days - таба, видео

Регистрация Запомнить меня
Войти через:  Facebook Google Twitter Vk Yandex Mail.ru

Gyroscope - These Days - таба, видео

Печатать
Просмотров: 108
These Days - Gyroscope
Tabbed By: Matt Heal
Email; mattheal@gmail.com


e|------------------------------------------------------------------------|
b|---12-12-10--10-10------------------------------------------------------|
g|-----------11------11--11-9-7---7-9-11-9-11-11-11-9-7----11-9-11-11-11--|
d|------------------------------9-----------------------9-----------------|
a|------------------------------------------------------------------------|
E|------------------------------------------------------------------------|

verse
e|---------------|
b|-4-2-2--2------|
g|-4-2-2--2-1-1--|
d|-4-2-2--2-2-2--|
a|-2-0-0--0-2-2--|
E|----------0-0--|

Pre Chorus

lead gtr
e|--2-----------------|
b|----2---------------| as needed
g|------2/4-----------|
d|--------------------|
a|--------------------|
E|--------------------|

Rythm
e|------------------------------------------------------------------|
b|------------------------------------------------------------------|
g|------------------------------------------------------------------|
d|-5-5-5-5-5-5-5-5--2-2-2-2-2-2-2-2--5-5-5-5-5-7-7-7--2-2-2-2-2-2-2-|
a|-5-5-5-5-5-5-5-5--2-2-2-2-2-2-2-2--5-5-5-5-5-7-7-7--2-2-2-2-2-2-2-|
E|-3-3-3-3-3-3-3-3--0-0-0-0-0-0-0-0--3-3-3-3-3-5-5-5--0-0-0-0-0-0-0-|

Both guitars

e|---------------------------------------------------|
b|---------------------------------------------------|
g|---------------------------------------------------|
d|-5-5-5-5-5-5-5-5--7-7-7-7-7-7-7-7--4-4-4-4-4-4-4-4-|
a|-5-5-5-5-5-5-5-5--7-7-7-7-7-7-7-7--4-4-4-4-4-4-4-4-|
E|-3-3-3-3-3-3-3-3--5-5-5-5-5-5-5-5--2-2-2-2-2-2-2-2-|



Chorus part 1 both guitars

e|-----------22222222-------------------------|
b|-44444444--33333333-------------------------|
g|-44444444--22222222-------------------------|
d|-44444444--00000000--55555555--22222222-----|
a|-22222222------------55555555--22222222-----|
E|---------------------33333333--00000000-----|

chorus part 2
gtr 1
e|-----------22222222-----------------------------------------|
b|-44444444--33333333-----------------------------------------|
g|-44444444--22222222-----------------------------------------|
d|-44444444--00000000--55555555--22222222--55555555--22222222-|
a|-22222222------------55555555--22222222--55555555--22222222-|
E|---------------------33333333--00000000--33333333--00000000-|


gtr2
e|------------------------------------------------------------------------|
b|---12-12-10--10-10------------------------------------------------------|
g|-----------11------11--11-9-7---7-9-11-9-11-11-11-9-7----11-9-11-11-11--|
d|------------------------------9-----------------------9-----------------|
a|------------------------------------------------------------------------|
E|------------------------------------------------------------------------|

Verse
e|---------------|
b|-4-2-2--2------|
g|-4-2-2--2-1-1--|
d|-4-2-2--2-2-2--|
a|-2-0-0--0-2-2--|
E|----------0-0--|

Pre Chorus

lead gtr
e|--2-----------------|
b|----2---------------| as needed
g|------2/4-----------|
d|--------------------|
a|--------------------|
E|--------------------|

Rythm
e|------------------------------------------------------------------|
b|------------------------------------------------------------------|
g|------------------------------------------------------------------|
d|-5-5-5-5-5-5-5-5--2-2-2-2-2-2-2-2--5-5-5-5-5-7-7-7--2-2-2-2-2-2-2-|
a|-5-5-5-5-5-5-5-5--2-2-2-2-2-2-2-2--5-5-5-5-5-7-7-7--2-2-2-2-2-2-2-|
E|-3-3-3-3-3-3-3-3--0-0-0-0-0-0-0-0--3-3-3-3-3-5-5-5--0-0-0-0-0-0-0-|

Both guitars
e|---------------------------------------------------|
b|---------------------------------------------------|
g|---------------------------------------------------|
d|-5-5-5-5-5-5-5-5--7-7-7-7-7-7-7-7--4-4-4-4-4-4-4-4-|
a|-5-5-5-5-5-5-5-5--7-7-7-7-7-7-7-7--4-4-4-4-4-4-4-4-|
E|-3-3-3-3-3-3-3-3--5-5-5-5-5-5-5-5--2-2-2-2-2-2-2-2-|


Chorus part 1 both guitars

e|-----------22222222-------------------------|
b|-44444444--33333333-------------------------|
g|-44444444--22222222-------------------------|
d|-44444444--00000000--55555555--22222222-----|
a|-22222222------------55555555--22222222-----|
E|---------------------33333333--00000000-----|

chorus part 2
gtr 1
e|-----------22222222-----------------------------------------|
b|-44444444--33333333-----------------------------------------|
g|-44444444--22222222-----------------------------------------|
d|-44444444--00000000--55555555--22222222--55555555--22222222-| x2
a|-22222222------------55555555--22222222--55555555--22222222-|
E|---------------------33333333--00000000--33333333--00000000-|


gtr2
e|------------------------------------------------------------------------|
b|---12-12-10--10-10------------------------------------------------------|
g|-----------11------11--11-9-7---7-9-11-9-11-11-11-9-7----11-9-11-11-11--|
d|------------------------------9-----------------------9-----------------| x2
a|------------------------------------------------------------------------|
E|------------------------------------------------------------------------|

extended chorus
gtr 1
e|----------------------------------------|
b|----------------------------------------| 
g|----------------------------------------| x 3
d|-55555555--22222222--55555555--22222222-|
a|-55555555--22222222--55555555--22222222-|
E|-33333333--00000000--33333333--00000000-|

gtr 2

e|-------------------------------------------|
b|-------------------------------------------|
g|---7-9-11-9-11-11-11-9-7----11-9-11-11-11--|
d|-9-----------------------9-----------------| x 2
a|-------------------------------------------|
E|-------------------------------------------|

Pre Solo

Gtr1 - verse chords with more dist
e|---------------|
b|-4-2-2--2------|
g|-4-2-2--2-1-1--|
d|-4-2-2--2-2-2--|
a|-2-0-0--0-2-2--|
E|----------0-0--|

Gtr 2

e|--------------------|
b|--------------------|
g|-11tr(slowly bend up|
d|--------------------|
a|--------------------|
E|--------------------|

gtr 1
e|------------------------------------------------------------------|
b|------------------------------------------------------------------|
g|------------------------------------------------------------------|
d|-5-5-5-5-5-5-5-5--2-2-2-2-2-2-2-2--5-5-5-5-5-7-7-7--2-2-2-2-2-2-2-|
a|-5-5-5-5-5-5-5-5--2-2-2-2-2-2-2-2--5-5-5-5-5-7-7-7--2-2-2-2-2-2-2-|
E|-3-3-3-3-3-3-3-3--0-0-0-0-0-0-0-0--3-3-3-3-3-5-5-5--0-0-0-0-0-0-0-|

e|------------------------------------------------------------------|
b|------------------------------------------------------------------|
g|------------------------------------------------------------------|
d|-5-5-5-5-5-5-5-5-5-5-5-5-5-5-5-5--7-7-7-7-7-7-7-7-7-7-7-7-7-7-7-7-| 
a|-5-5-5-5-5-5-5-5-5-5-5-5-5-5-5-5--7-7-7-7-7-7-7-7-7-7-7-7-7-7-7-7-|
E|-3-3-3-3-3-3-3-3-3-3-3-3-3-3-3-3--5-5-5-5-5-5-5-5-5-5-5-5-5-5-5-5-|



gtr 2 (play each bend 4 times)
e|---------------------|
b|-12----------15------|
g|-14b(16)-----17b(19)-| x3
d|---------------------|
a|---------------------|
E|---------------------|

e|--------------------|
b|-17--------19-------|
g|-19b(21)---21b(23)--|
d|--------------------|
a|--------------------|
E|--------------------|


Outro Chorus
Gtr 1
e|-----------22222222-------------------------|
b|-44444444--33333333-------------------------|
g|-44444444--22222222-------------------------|
d|-44444444--00000000--55555555--22222222-----| x 2
a|-22222222------------55555555--22222222-----|
E|---------------------33333333--00000000-----|

gtr2
e|------------------------------------------------------------------------|
b|---12-12-10--10-10------------------------------------------------------|
g|-----------11------11--11-9-7---7-9-11-9-11-11-11-9-7----11-9-11-11-11--|
d|------------------------------9-----------------------9-----------------| x2
a|------------------------------------------------------------------------|
E|------------------------------------------------------------------------|

both guitars
e|-----------22222222-------------------------|
b|-44444444--33333333-------------------------|
g|-44444444--22222222-------------------------|
d|-44444444--00000000--55555555--22222222-----|
a|-22222222------------55555555--22222222-----|
E|---------------------33333333--00000000-----|


Lead Gtr
e|--2-----------------|
b|----2---------------|  
g|------2/4-----------|
d|--------------------| x as needed
a|--------------------|
E|--------------------|

Rhythm
e|------------------------------------------------------------------|
b|------------------------------------------------------------------|
g|------------------------------------------------------------------|
d|-5-5-5-5-5-5-5-5--2-2-2-2-2-2-2-2--5-5-5-5-5-7-7-7--2-2-2-2-2-2-2-|
a|-5-5-5-5-5-5-5-5--2-2-2-2-2-2-2-2--5-5-5-5-5-7-7-7--2-2-2-2-2-2-2-|
E|-3-3-3-3-3-3-3-3--0-0-0-0-0-0-0-0--3-3-3-3-3-5-5-5--0-0-0-0-0-0-0-|

Both guitars

e|---------------------------------------------------|
b|---------------------------------------------------|
g|---------------------------------------------------|
d|-5-5-5-5-5-5-5-5--7-7-7-7-7-7-7-7--4-4-4-4-4-4-4-4-|
a|-5-5-5-5-5-5-5-5--7-7-7-7-7-7-7-7--4-4-4-4-4-4-4-4-|
E|-3-3-3-3-3-3-3-3--5-5-5-5-5-5-5-5--2-2-2-2-2-2-2-2-|

End on
e|---|
b|-4-|
g|-4-|
d|-4-|
a|-2-|
E|---|
Добавлено: 09.06.2012
Другие материалы по этой песне:
  • Аккорды и текст

Страница создана 09.06.2012
http://primanota.ru/gyroscope/these-days-chords.htm
Привет, Гость.
Предлагаем пройти революционный курс по гитаре.
Подарок от PrimaNota.Ru, забирай!