PrimaNota.ru - самый крупный в мире бесплатный архив песенных текстов, аккордов, табулатур и нот


Gyroscope - The Lesser Me - текст песни, таба, видео

Регистрация Запомнить меня
Войти через:  Facebook Google Twitter Vk Yandex Mail.ru

Gyroscope - The Lesser Me - текст песни, таба, видео

Печатать
Просмотров: 101
-------------------------------------------------------------------------------
                             THE LESSER ME - Gyroscope
-------------------------------------------------------------------------------
Tabbed by: orgasmickey
Tuning: DADGBe

Listen to the song for the order.

[Intro]

GTR1
e|---------------------|---------------------|
B|---------------------|---------------------|
G|-7777-7777-7777-7666-|-7777-7777-7777-7666-|
D|-0000-0000-0000-0000-|-0000-0000-0000-0000-|
A|---------------------|---------------------|
D|---------------------|---------------------|

GTR2
e|---------------------|---------------------|
B|---------------------|---------------------|
G|---------------------|---------------------|
D|-7555-4555-7555-4555-|---4---5--------4--5-|
A|---------------------|-7---7--------7---7--|
D|---------------------|---------------------|

[Verse]

GTR1
e|----------------------------------------------------------------|
B|----------------------------------------------------------------|
G|--4-4-x-x--x----4-4-x-x--x----4-4-x-x--x----4-4-x-x--x----------|
D|--4-4-x-x--x----4-4-x-x--x----4-4-x-x--x----4-4-x-x--x----------|
A|--2-2-x-x--x----2-2-x-x--x----2-2-x-x--x----2-2-x-x--x----------|
D|----------------------------------------------------------------|

    "take care to notice - this is the lesser me, the lesser me"

GTR2
e|-0---------------0----------------0---------------0-------------|
B|-0---------------0----------------0---------------0-------------|
G|-0-12-12\10-10---0-12-12\10-10----0-12-12\10-10---0-12-12\10-10-|
D|----x--x\-x--x------x--x\-x--x-------x--x\-x--x------x--x\-x--x-|
A|---10-10\-9--9-----10-10\-9--9------10-10\-9--9-----10-10\-9--9-|
D|----------------------------------------------------------------|

[Bridge]

GTR1 (harmonic feedback)
e|----------------------------------|
B|----------------------------------|
G|-7~~~~~~~~~~~~~~~~~~~~~~~~~~~~~~~~|
D|----------------------------------|
A|----------------------------------|
D|----------------------------------|

GTR2
e|----------------------------------|
B|----------8p7----------8/10--8p7--|
G|-------7------------7-------------|
D|----7------------7----------------|
A|-5------------5-------------------|
D|----------------------------------|

[Chorus]

e|-------------------------------------|-------------------------------------|
B|-------------------------------------|-------------------------------------|
G|-77777777-77777777-77777777-77777777-|-77777777-77777777-77777777-77777777-|
D|-77777777-77777777-77777777-77777777-|-55555555-55555555-55555555-55555555-|
A|-55555555-55555555-55555555-55555555-|-55555555-55555555-55555555-55555555-|
D|-------------------------------------|-55555555-55555555-55555555-55555555-|

   "Fall and the sun shines/How do you know how I feel without asking?"

e|-----------------------------------------|-----------------------------------------|
B|-----------------------------------------|-----------------------------------------|
G|-7777-7777-7777-7666-7777-7777-7777-7666-|-7777-7777-7777-7666-7777-7777-7777-7666-|
D|-0000-0000-0000-0000-0000-0000-0000-0000-|-0000-0000-0000-0000-0000-0000-0000-0000-|
A|-----------------------------------------|-----------------------------------------|
D|-----------------------------------------|-----------------------------------------|


| /  slide up
| \  slide down
| h  hammer-on
| p  pull-off
| ~  vibrato
| +  harmonic
| x  Mute note
===============================================================================
Добавлено: 09.03.2012
Другие материалы по этой песне:
  • Аккорды и текст

Страница создана 08.03.2012
http://primanota.ru/gyroscope/the-lesser-me-chords.htm
Привет, Гость.
Предлагаем пройти революционный курс по гитаре.
Подарок от PrimaNota.Ru, забирай!