PrimaNota.ru - самый крупный в мире бесплатный архив песенных текстов, аккордов, табулатур и нот


Gyroscope - Some Of The Places I Know - таба, видео

Регистрация Запомнить меня
Войти через:  Facebook Google Twitter Vk Yandex Mail.ru

Gyroscope - Some Of The Places I Know - таба, видео

Печатать
Просмотров: 113
-------------------------------------------------------------------------------
                             Some of the places I know - Gyroscope
-------------------------------------------------------------------------------
Tabbed by:
Email:

Tuning:  Standard EADGBe

Gyroscopes new single ‘Some of the places I know'.

Intro

Lead guitar (play twice).

e|---------5----------------5--------|
B|-----6-8---8-6--------6-8---8-6----|
G|-7-7-----------7--7-7-----------7--|
D|-----------------------------------|
A|-----------------------------------|
E|-----------------------------------|

e|---------5-5-----------------------|
B|-----6-8---------------6-6-5-------|
G|-7-7--------------7-7--------5-----|
D|-----------------------------------|
A|-----------------------------------|
E|-----------------------------------|

Bass (play twice).

G|---------------------------------------------------------------------|
D|---------------------------------------------------------------------|
A|-5-5-5-5-5-3-----3-3-3-3---------------------------------------------|
E|-------------6-5---------6-5-3-5--3-3-3-3-3-1-3-5--6-6-6-6-6-5-3-1---|

Verse 1

Bass (play twice)

G|----------------------------------------------------------------|
D|----------------------------------------------------------------|
A|-5--5--5-3------3-3-3-------------------------------------------|
E|-----------6-5---------6-5-3-5--3-3-3--3-1-3-5--6-6-6-6-6-5-3-1-|

Play this on the third time leading into the pre-chorus.

G|----------------------------------------------------------------|
D|----------------------------------------------------------------|
A|-5--5--5-3------3-3-3-------------------------------------------|
E|-----------6-5---------6-5-3-5--3-3-3--3-1-3-5--6-6-6-6-6-6-6-6-|

Rhythm guitar.  (Join in on second repeat of bass riff.  Play twice).

e|-------------|
B|-------------|
G|-7--7--7--7--|
D|-------------|
A|-5--5--5--5--|
E|-------------|

Lead guitar. (Join in on third repeat of bass riff.)

e|---------5----------------5--------|
B|-----6-8---8-6--------6-8---8-6----|
G|-7-7-----------7--7-7-----------7--|
D|-----------------------------------|
A|-----------------------------------|
E|-----------------------------------|

e|---------5-5-----------------------|
B|-----6-8---------------6-6-5-------|
G|-7-7--------------7-7--------5-----|
D|-----------------------------------|
A|-----------------------------------|
E|-----------------------------------|


Pre-chorus

Rhythm guitar.

e|--------------------------------------------------------|
B|--------------------------------------------------------|
G|-7-7--7-7-7------------------5-5--5-5-------------------|
D|-7-7--7-7-7-3--3-3-3-3-3-3-3-5-5--5-5--5--5-5-5-5-5-5-5-|
A|-5-5--5-5-5-3--3-3-3-3-3-3-3-3-3--3-3--5--5-5-5-5-5-5-5-|
E|------------1--1-1-1-1-1-1-1-----------3--3-3-3-3-3-3-3-|

e|---------------------------------------------------------|
B|---------------------------------------------------------|
G|-7-7--7-7-7------------------5-5--5-3--------------------|
D|-7-7--7-7-7-3--3-3-3-3-3-3-3-5-5--5-3---5--5-5-5-5-5-5-5-|
A|-5-5--5-5-5-3--3-3-3-3-3-3-3-3-3--3-1-0-5--5-5-5-5-5-5-5-|
E|------------1--1-1-1-1-1-1-1------------3--3-3-3-3-3-3-3-|

Bass guitar. (Play twice).

G|-----5---7-5------------------------3---5-3---------------------|
D|-------7-----7------------------------5-----5-------------------|
A|-5-5-----------------------------3-3----------------------------|
E|---------------1---1-1-1-1-1-1-1---------------3--3-3-3-3-3-3-3-|

(The lead guitar could just play the rhythm as well but maybe you could play the F and G 
chords with the 5th string as root note).

Chorus (Bass just play the bass note from the rhythm guitar).

Rhythm guitar.

e|----------------------------------------------------------------|
B|----------------------------------------------------------------|
G|-3-3-3-3-3-3-3-3-3-3-3-3-3-3-3-3-5-5-5-5-5-5-5-5-5-5-5-5--------|
D|-3-3-3-3-3-3-3-3-3-3-3-3-3-3-3-3-5-5-5-5-5-5-5-5-5-5-5-5-5--5-2-|
A|-1-1-1-1-1-1-1-1-1-1-1-1-1-1-1-1-3-3-3-3-3-3-3-3-3-3-3-3-5--5-0-|
E|---------------------------------------------------------3--3---|

e|----------------------------------------------------------------|
B|----------------------------------------------------------------|
G|-3-3-3-3-3-3-3-3-3-3-3-3-3-3-3-3-5-5-5-5-5-5-5------------------|
D|-3-3-3-3-3-3-3-3-3-3-3-3-3-3-3-3-5-5-5-5-5-5-5--5-5--5-5-5-5-5--|
A|-1-1-1-1-1-1-1-1-1-1-1-1-1-1-1-1-3-3-3-3-3-3-3--5-5--5-5-5-5-5--|
E|------------------------------------------------3-3—-3-3-3-3-3--|

Lead guitar. (Play twice).

e|----------------------------------------------------------------|
B|----------------------------------------------------------------|
G|----------------------------------------------------------------|
D|----------------------------------------------------------------|
A|-1-1-1-/8------------------------3-3-3-/10----------------------|
E|----------------------------------------------------------------|

Verse 2

Bass guitar.

G|----------------------------------------------------------------|
D|------------------------------------------------------------5-3-|
A|-5--5--5-3------3-3-3-------------------------------------------|
E|-----------6-5---------6-5-3-5--3-3-3--3-1-3-5--6-6-6-6-6-5-----|

G|----------------------------------------------------------------|
D|------------------------------------------------------------3-5-|
A|-5--5--5-3------3-3-3-------------------------------------------|
E|-----------6-5---------6-5-3-5--3-3-3--3-1-3-5--6-6-6-6-6-5-----|

G|----------------------------------------------------------------|
D|----------------------------------------------------------------|
A|-5--5--5-3------3-3-3-------------------------------------------|
E|-----------6-5---------6-5-3-5--3-3-3--3-1-3-5--6-6-6-6-6-6-6-6-|


Rhythm guitar.  (Join in on second repeat of bass riff.  Play twice).

e|-------------|
B|-------------|
G|-7--7--7--7--|
D|-------------|
A|-5--5--5--5--|
E|-------------|

Lead guitar. (Join in on third repeat of bass riff.)

e|---------5----------------5--------|
B|-----6-8---8-6--------6-8---8-6----|
G|-7-7-----------7--7-7-----------7--|
D|-----------------------------------|
A|-----------------------------------|
E|-----------------------------------|

e|---------5-5-----------------------|
B|-----6-8---------------6-6-5-------|
G|-7-7--------------7-7--------5-----|
D|-----------------------------------|
A|-----------------------------------|
E|-----------------------------------|

Pre-chorus 2

Rhythm guitar.

e|--------------------------------------------------------|
B|--------------------------------------------------------|
G|-7-7--7-7-7------------------5-5--5-5-------------------|
D|-7-7--7-7-7-3--3-3-3-3-3-3-3-5-5--5-5--5--5-5-5-5-5-5-5-|
A|-5-5--5-5-5-3--3-3-3-3-3-3-3-3-3--3-3--5--5-5-5-5-5-5-5-|
E|------------1--1-1-1-1-1-1-1-----------3--3-3-3-3-3-3-3-|

Bass guitar.

G|-----5---7-5------------------------3---5-3---------------------|
D|-------7-----7------------------------5-----5-------------------|
A|-5-5-----------------------------3-3----------------------------|
E|---------------1---1-1-1-1-1-1-1---------------3--3-3-3-3-3-3-3-|


Chorus 2

Rhythm guitar.

e|----------------------------------------------------------------|
B|----------------------------------------------------------------|
G|-3-3-3-3-3-3-3-3-3-3-3-3-3-3-3-3-5-5-5-5-5-5-5-5-5-5-5-5--------|
D|-3-3-3-3-3-3-3-3-3-3-3-3-3-3-3-3-5-5-5-5-5-5-5-5-5-5-5-5-5--5-2-|
A|-1-1-1-1-1-1-1-1-1-1-1-1-1-1-1-1-3-3-3-3-3-3-3-3-3-3-3-3-5--5-0-|
E|---------------------------------------------------------3--3---|

e|----------------------------------------------------------------|
B|----------------------------------------------------------------|
G|-3-3-3-3-3-3-3-3-3-3-3-3-3-3-3-3-5-5-5-5-5-5-5------------------|
D|-3-3-3-3-3-3-3-3-3-3-3-3-3-3-3-3-5-5-5-5-5-5-5--5-5--5-5-5-5-5--|
A|-1-1-1-1-1-1-1-1-1-1-1-1-1-1-1-1-3-3-3-3-3-3-3--5-5--5-5-5-5-5--|
E|------------------------------------------------3-3—-3-3-3-3-3--|

Lead guitar. (Play twice).

e|----------------------------------------------------------------|
B|----------------------------------------------------------------|
G|----------------------------------------------------------------|
D|----------------------------------------------------------------|
A|-1-1-1-/8------------------------3-3-3-/10----------------------|
E|----------------------------------------------------------------|



Solo

Lead guitar.

e|---------------------------------------------------------------------------|
B|-/10-10-10-10-10-10-10-10-10-10-10-10---10--10--10--10--10--10-------------|
G|-/10-10-10-10-10-10-10-10-10-12----12b*-12b-12b-12b-12b-12b-12b------------|
D|---------------------------------------------------------------------------|
A|---------------------------------------------------------------------------|
E|---------------------------------------------------------------------------|
*progressively bend the G note to a full bend.
e|----------------------------------------------|
B|----------------------------------------------|
G|-10-10-10-10-10-10-10-10—5-/9--7--/10-9-/12---|
D|-12-12-12-12-12-12-12-12----------------------|
A|----------------------------------------------|
E|----------------------------------------------|

e|-------------------------------10-13-10----10-13-13br15-10----10------------------|
B|-------------------------10-13----------13-----------------13----13~-10-----------|
G|-------------------10-12------------------------------------------------12-10-----|
D|-------------10-12------------------------------------------------------------10~-|
A|-------10-12----------------------------------------------------------------------|
E|-10-13----------------------------------------------------------------------------|

Rhythm guitar (Play twice).

e|-----------------------------------|
B|-----------------------------------|
G|-7-7-7-7---------5-5-5-5-----------|
D|-7-7-7-7-3-3-3-3-5-5-5-5--5-5-5-5--|
A|-5-5-5-5-3-3-3-3-3-3-3-3--5-5-5-5--|
E|---------1-1-1-1----------3-3-3-3--|

e|---------------------------------|
B|---------------------------------|
G|-7-7-7-7-3-3-3-3-----------------|
D|-7-7-7-7-3-3-3-3-5-5-5-5-5-5-5-5-|
A|-5-5-5-5-1-1-1-1-5-5-5-5-5-5-5-5-|
E|-----------------3-3-3-3-3-3-3-3-|

Chorus 3

Rhythm guitar.

e|----------------------------------------------------------------|
B|----------------------------------------------------------------|
G|-3-3-3-3-3-3-3-3-3-3-3-3-3-3-3-3-5-5-5-5-5-5-5-5-5-5-5-5--------|
D|-3-3-3-3-3-3-3-3-3-3-3-3-3-3-3-3-5-5-5-5-5-5-5-5-5-5-5-5-5--5-2-|
A|-1-1-1-1-1-1-1-1-1-1-1-1-1-1-1-1-3-3-3-3-3-3-3-3-3-3-3-3-5--5-0-|
E|---------------------------------------------------------3--3---|

e|----------------------------------------------------------------|
B|----------------------------------------------------------------|
G|-3-3-3-3-3-3-3-3-3-3-3-3-3-3-3-3-5-5-5-5-5-5-5------------------|
D|-3-3-3-3-3-3-3-3-3-3-3-3-3-3-3-3-5-5-5-5-5-5-5--5-5--5-5-5-5-5--|
A|-1-1-1-1-1-1-1-1-1-1-1-1-1-1-1-1-3-3-3-3-3-3-3--5-5--5-5-5-5-5--|
E|------------------------------------------------3-3—-3-3-3-3-3--|

Lead guitar. (Play twice).

e|----------------------------------------------------------------|
B|----------------------------------------------------------------|
G|----------------------------------------------------------------|
D|----------------------------------------------------------------|
A|-1-1-1-/8------------------------3-3-3-/10----------------------|
E|----------------------------------------------------------------|




Outro 1

Lead guitar.  (Play two times).

e|---------5----------------5--------|
B|-----6-8---8-6--------6-8---8-6----|
G|-7-7-----------7--7-7-----------7--|
D|-----------------------------------|
A|-----------------------------------|
E|-----------------------------------|

e|---------5-5-----------------------|
B|-----6-8---------------6-6-5-------|
G|-7-7--------------7-7--------5-----|
D|-----------------------------------|
A|-----------------------------------|
E|-----------------------------------|

Rhythm guitar.


e|-----------------------------------------------------------------|
B|-----------------------------------------------------------------|
G|-3-3-3-3-3-3-3-3-3-3-3-3-3-3-3-3-5-5-5-5-5-5-5-5-5-5-5-5-5-5-5-5-|
D|-3-3-3-3-3-3-3-3-3-3-3-3-3-3-3-3-5-5-5-5-5-5-5-5-5-5-5-5-5-5-5-5-|
A|-1-1-1-1-1-1-1-1-1-1-1-1-1-1-1-1-3-3-3-3-3-3-3-3-3-3-3-3-3-3-3-3-|
E|-----------------------------------------------------------------|

e|----------------------------------------------------------------|
B|----------------------------------------------------------------|
G|-3-3-3-3-3-3-3-3-3-3-3-3-3-3-3-3-5-5-5-5-5-5-5------------------|
D|-3-3-3-3-3-3-3-3-3-3-3-3-3-3-3-3-5-5-5-5-5-5-5--5-5--5-5-5-5-5--|
A|-1-1-1-1-1-1-1-1-1-1-1-1-1-1-1-1-3-3-3-3-3-3-3--5-5--5-5-5-5-5--|
E|------------------------------------------------3-3—-3-3-3-3-3--|

Outro 2

Lead guitar

e|---------5----------------5--------|
B|-----6-8---8-6--------6-8---8-6----|
G|-7-7-----------7--7-7-----------7--|
D|-----------------------------------|
A|-----------------------------------|
E|-----------------------------------|

e|---------5-5-----------------------|
B|-----6-8---------------6-6-5-------|
G|-7-7--------------7-7--------5-----|
D|-----------------------------------|
A|-----------------------------------|
E|-----------------------------------|

Bass guitar

G|---------------------------------------------------------------------|
D|---------------------------------------------------------------------|
A|-5-5-5-5-3-3-----3-3-3-3-3-------------------------------------------|
E|-------------6-5-----------6-5-3-5--3-3-3-3-3-1-3-5--6-6-6-6-6-5-3-1-|

Lead guitar.  Play four times to finish.

e--------------|
B|-----6-6-5---|
G|-7-7-------5-|
D|-------------|
A|-------------|
E|-------------|


Bass four times to finish.

G|-------------------|
D|-------------------|
A|-------------------|
E|---6-6-6-6-6-6-6-5-|
Добавлено: 20.07.2012
Другие материалы по этой песне:
  • Аккорды и текст

Страница создана 20.07.2012
http://primanota.ru/gyroscope/some-of-the-places-i-know-chords.htm
Привет, Гость.
Предлагаем пройти революционный курс по гитаре.
Подарок от PrimaNota.Ru, забирай!