PrimaNota.ru - самый крупный в мире бесплатный архив песенных текстов, аккордов, табулатур и нот


Gyroscope - Snakeskin - таба, видео

Регистрация Запомнить меня
Войти через:  Facebook Google Twitter Vk Yandex Mail.ru

Gyroscope - Snakeskin - таба, видео

Печатать
Просмотров: 128
This should cover most of the song. Some of the guitars in the background towards the 
I haven't tabbed because they're similar to bits earlier on...

I've also missed out on the solo, but it revolves somewhere around the notes that the 
is based on...

  *= palm mute
<3>= harmonic at 3rd fret

INTRO (it's played on piano, but this is the adaptation to guitar)
E|----------------------12----|----------------------12----|----12-10----------10-12----|
B|-10--10-12--12-13--13----13-|-10--10-12--12-13--13----13-|-10-------13-10-13-------10-|
G|----------------------------|----------------------------|----------------------------|
D|----------------------------|----------------------------|----------------------------|
A|----------------------------|----------------------------|----------------------------|
D|----------------------------|----------------------------|----------------------------|

PRE-CHORUS
E|--------------------|
B|--------------------|
G|--------------------|
D|-0------------------|
A|-0------------------|
D|-0-----333333-55555-|
   *     ****** *****
"Tonight means nothing..."

CHORUS x2
E|-------------------------------------------|
B|-------------------------------------------|
G|-------------------------------------------|
D|-55555555-00000000-33333-x-x-x-33333-x-x-x-|
A|-55555555-00000000-33333-x-x-x-33333-x-x-x-|
D|-55555555-00000000-33333-x-x-x-33333-x-x-x-|

"Stayin' here will only breed obsession, and I'm already obsessed /
 Everything you see is your possession, and I'm already posessed."


E|-------------------------<3>-<3>-<3>-------<3>-<3>-<3>-|
B|-------------------------<3>-<3>-<3>-------<3>-<3>-<3>-|
G|-------------------------<3>-<3>-<3>-------<3>-<3>-<3>-|
D|-55555555-77777887-33333-------------33333-------------|
A|-55555555-77777887-33333-------------33333-------------|
D|-55555555-77777887-33333-------------33333-------------|

"....Careful kid, this is not your..."


E|-------------------------------------------|
B|-------------------------------------------|
G|-------------------------------------------|
D|-5555555555555555-33333333333--------------|
A|-5555555555555555-33333333333-x-3-5--------|
D|-5555555555555555-33333333333-------x-5-7--|

"...soullllll, although it could be before too long"


VERSE / PRE-CHORUS (let first 4 chords ring)
E|--------------------------------------------|
B|--------------------------------------------|
G|--------------------------------------------|
D|-7----3----7----3---------------------------|
A|-7----3----7----3---------------------------|
D|-7----3----7----3-3---0----5----0----3----5-|
                    *   *    *    *    *    *
"...before too long, a lesson learned, to stand up..."

PRE-CHORUS  guitar 2 (adaptation from piano)
E|----12-10-------10-12----|----12-10-------10-12----|
B|-10-------13-12-------10-|-10-------13-12-------10-|
G|-------------------------|-------------------------|
D|-------------------------|-------------------------|
A|-------------------------|-------------------------|
D|-------------------------|-------------------------|

"tonight means nothing..."

CHORUS

BRIDGE x3
E|-------------------------------|
B|-------------------------------|
G|-------------------------------|
D|------------------5-7-5-7------|
A|-----3-5-----3-5--5-7-5-7------|
D|-5-7-----5-7------5-7-5-7------|


E|---------------------|
B|---------------------|
G|---------------------|
E|---------------------|
B|-----3-5-------------|
G|-5-7-----3-5-1-3-1-0-|
Добавлено: 17.03.2012
Другие материалы по этой песне:

Страница создана 17.03.2012
http://primanota.ru/gyroscope/snakeskin-chords.htm
Привет, Гость.
Предлагаем пройти революционный курс по гитаре.
Подарок от PrimaNota.Ru, забирай!