PrimaNota.ru - самый крупный в мире бесплатный архив песенных текстов, аккордов, табулатур и нот


Gyroscope - Safe Forever - текст песни, таба, видео

Регистрация Запомнить меня
Войти через:  Facebook Google Twitter Vk Yandex Mail.ru

Gyroscope - Safe Forever - текст песни, таба, видео

Печатать
Просмотров: 126
Artist: Gyroscope

Song: Safe Forever

both guitars are tabbed here so just figure out the strumming.
______
gtr1. 
Zoran.
______


intro.

e|----------0-----0--10p0-----------------------------|
b|-0--3--5-----5----------12p0--10--10--10------------|
g|----------------------------------------------------|
d|----------------------------------------------------|
a|----------------------------------------------------|
E|----------------------------------------------------|


Verse.

e|----------0-----0--10p0-----------------------------|
b|-0--3--5-----5----------12p0--10--10--10------------|
g|----------------------------------------------------|
d|----------------------------------------------------|repeat
a|----------------------------------------------------|
E|----------------------------------------------------|

prechorus.

e|-----------------------------------7-----7-----7---7-----7-----7--|
b|-----10~----10~----10~---------------8-----8---------8-----8------|
g|---------------------------------9-----9-----9---9-----9-----9----|
d|------------------------------------------------------------------|
a|------------------------------------------------------------------|
e|------------------------------------------------------------------|


chorus.

e|---7-----7-----7---7-----7-----7---7-----7-----7---7-----7-----7-|
b|-----8-----8---------8-----8---------8-----8---------8-----8-----|
g|-9-----9-----9---9-----9-----9---9-----9-----9---9-----9-----9---|
d|-----------------------------------------------------------------|
a|-----------------------------------------------------------------|
e|-----------------------------------------------------------------|

postchorus.

e|------0---0-10p0--------------------------------------------------|
b|-0-3-5--5--------12p0-10-10-10-10-10-10/12-12-12-12-12-12/13-13-8-|
g|------------------------------------------------------------------|
d|------------------------------------------------------------------|
a|------------------------------------------------------------------|
e|------------------------------------------------------------------|


e|------0--0-10p0------------------------------------------------------|
b|-0-3-5--5------12p0-10-10-10-/12-12-12-12-10/12-12-12-12/13-13/15-15~|
g|---------------------------------------------------------------------|
d|---------------------------------------------------------------------|
a|---------------------------------------------------------------------|
e|---------------------------------------------------------------------|

bridge.

e|-----------------------------------------------------|
b|-----------------------------------------------------|
g|-7/9-9-9-9-9-9-9-5/7-7-7-7-7-7-7-4/5-4/5-4/5-4/5-4\2-|
d|-----------------------------------------------------|
a|-5/7-7-7-7-7-7-7-3-5-5-5-5-5-5-5-2-3-2-3-2-3-2-3-2-0-|
e|-----------------------------------------------------|


e|------------------------------------------------------------------|
b|------------------------------------------------------------------|
g|-7/9-9-9-9-9-9-9-5/7-7-7-7-7-7-7-4-4-4-4-5-5-5-5-7-7-7-7-9-9-9-9--|
d|------------------------------------------------------------------|
a|-5/7-7-7-7-7-7-7-3-5-5-5-5-5-5-5-2-2-2-2-3-3-3-3-5-5-5-5-7-7-7-7--|
e|------------------------------------------------------------------|

e|-------------------------------------------|
b|-3/5-5~---1/3-3~---------------------------|
g|--------------------4/5\4/5-4/5\4/5-4\2~---|
d|-------------------------------------------|
a|-------------------------------------------|x2
e|-------------------------------------------|

e|-----------------------------------------------------------------|
b|-4/5\4/5-4/5\4/5-4/5\4/5-4/5\4/5-4/5\4/5-4/5\4/5-4/5\4/5-4/5\4/5-|
g|-----------------------------------------------------------------|
d|-----------------------------------------------------------------|
a|-----------------------------------------------------------------|
e|-----------------------------------------------------------------|

e|-------------------------------------------------|
b|-------------------------------------------------|
g|-----------------------------5-------------------|
d|-----7-----------5-----------5----------5--------|x2
a|-----7-----------5-----------3----------5--------|
e|-----5-----------3----------------------3--------|

end.

e|----------------------------------------------|
b|----------------------------------------------|
g|-5--------------------------------------------|
d|-5---------------5---------------7------------|
a|-3---------------5---------------7------------|
e|-----------------3---------------5------------|




________
gtr2.
daniel.
________

intro.

e|------------------------------------------------------|
b|------------------------------------------------------|
g|---------2-----------5-----------------------5--------|
d|---------2-----------5-----------5-----------5--------|
a|---------0-----------3-----------5-----------3--------|
e|---------------------------------3--------------------|

verse.

e|-------------------------------------------------|
b|-------------------------------------------------|
g|----2-----------2-----------5--------------------|
d|----2-----------2-----------5-----------5--------|
a|----0-----------0-----------3-----------5--------|
e|----------------------------------------3--------|

e|----------------------------------------------------|
b|----------------------------------------------------|
g|----2-----------2-----------5-----------------------|
d|----2-----------2-----------5-----------5---------3-|
a|----0-----------0-----------3-----------5---------3-|
e|----------------------------------------3---------1-|

prechorus.

e|-----------------------------------------------------------------|
b|-----------------------------------------------------------------|
g|-2---------------------------------------------------------------|
d|-2---------------------------------------------------------------|
a|-0---------------------------------------------------------------|
e|-----------------------------------------------------------------|

chorus.

e|-------------------------------------------------|
b|-------------------------------------------------|
g|----5-----------4-----------7--------------------|
d|----5-----------4-----------7-----------7--------|
a|----3-----------2-----------5-----------7--------|
e|----------------------------------------5--------|

postchorus.


e|-------------------------------------------------|
b|-------------------------------------------------|
g|----------------------------5--------------------|
d|------7---------5-----------5----------5---------|
a|------7---------5-----------3----------5---------|
e|------5---------3----------------------3---------|

e|--------------------------------------------------|
b|--------------------------------------------------|
g|----------------------------5---------------------|
d|------7---------5-----------5----------5-------3--|
a|------7---------5-----------3----------5-------3--|
e|------5---------3----------------------3-------1--|

bridge.

e|------------------------------|
b|------------------------------|
g|------------------------------|
d|------7---------5----------3--|
a|------7---------5----------3--|x2
e|------5---------3----------1--|

e|-------------------------------------------------|
b|-------------------------------------------------|
g|-----5-------------------------------------------|
d|-----5----------5-----------7--------------------|
a|-----3----------5-----------7--------------------|
e|----------------3-----------5--------------------|
......................pm............................

e|-------------------------------------------------|
b|-------------------------------------------------|
g|-----------------------------5-------------------|
d|-----7-----------5-----------5----------5--------|x2 
a|-----7-----------5-----------3----------5--------|
e|-----5-----------3----------------------3--------|
....................pm..............................

e|-------------------------------------------------|
b|-------------------------------------------------|
g|-----------------------------5-------------------|
d|-----7-----------5-----------5----------5--------|x2
a|-----7-----------5-----------3----------5--------|
e|-----5-----------3----------------------3--------|

end.

e|----------------------------------------------|
b|----------------------------------------------|
g|-5--------------------------------------------|
d|-5---------------5---------------7------------|
a|-3---------------5---------------7------------|
e|-----------------3---------------5------------|





You can also figure out the structure of the song. (:


Добавлено: 26.07.2012
Другие материалы по этой песне:

Страница создана 12.04.2012
http://primanota.ru/gyroscope/safe-forever-chords.htm
Привет, Гость.
Предлагаем пройти революционный курс по гитаре.
Подарок от PrimaNota.Ru, забирай!