PrimaNota.ru - самый крупный в мире бесплатный архив песенных текстов, аккордов, табулатур и нот


Gyroscope - Ok - таба, видео

Регистрация Запомнить меня
Войти через:  Facebook Google Twitter Vk Yandex Mail.ru

Gyroscope - Ok - таба, видео

Печатать
Просмотров: 99
OK - Gyroscope
Tabbed By: Matt Heal
Email: mattheal (at) Gmail.com

Tuning - DAN (gtr1) - Drop D
       - ZOK (gtr2) - Standard

intro / verse
e|--------------------------------------------------------------|
b|--------------------------------------------------------------|
g|--------------------------------------------------------------|
d|-6-6-6-6-6-6-6-6-0/7-7-6-6-6-6-6-6-6-7-7-7-7-7-7-6-6-6-6-6-6--| x 2
a|-4-4-4-4-4-4-4-4-0/7-7-6-6-6-6-6-6-6-5-5-5-5-5-5-4-4-4-4-4-4--|
D|-4-4-4-4-4-4-4-4-0/7-7-6-6-6-6-6-6-6-0-0-0-0-0-0-4-4-4-4-4-4--|
pm *********************************************************
verse part 2
(darlin...
e|------------------------------------|
b|------------------------------------|
g|------------------------------------|
d|-2-2-2-2-2-2-2-2-4-4-4-4-4-4-4-4----| X 3
a|-2-2-2-2-2-2-2-2-4-4-4-4-4-4-4-4----|
D|-2-2-2-2-2-2-2-2-4-4-4-4-4-4-4-4----|
pm *******************************
verse part 3
e|---------------------------------------------------------------------------------|
b|---------------------------------------------------------------------------------|
g|---------------------------------------------------------------------------------|
d|-2\44-4-4-4-2\44-4-4-4-2-2-2-2-2-2-2-2-2-2-0-0-0-0-0-0-0-0-0-0-2-2-4-4-4-4-2\44--|
a|-2\44-4-4-4-2\44-4-4-4-2-2-2-2-2-2-2-2-2-2-0-0-0-0-0-0-0-0-0-0-2-2-4-4-4-4-2\44--|
D|-2\44-4-4-4-2\44-4-4-4-2-2-2-2-2-2-2-2-2-2-0-0-0-0-0-0-0-0-0-0-2-2-4-4-4-4-2\44--|
pm ******************************************************************************
e|------------------------------------|
b|------------------------------------|
g|------------------------------------|
d|-2-2-2-2-2-2-2\2-4-4-4-4-4-4-4-4----| X 3
a|-2-2-2-2-2-2-2\2-4-4-4-4-4-4-4-4----|
D|-2-2-2-2-2-2-2\2-4-4-4-4-4-4-4-4----|
pm *******************************
Chorus
Gtr 1
e|-2-|
b|-3-|
g|-2-|
d|-0-|
a|-0-|
D|-0-|

Gtr 2
e|-----------------------------------|
b|-7-7-7-\-9-9-9-\-101010-\-121212~--|
g|-----------------------------------| x2
d|-----------------------------------|
a|-----------------------------------|
E|-----------------------------------|

pre verse
gtr 1
e|-------------------------0--|
b|-------------------------0--|
g|-------------------------0--|
d|-2h44-4-4-4-2h44-4-4-4---0--|
a|-2h44-4-4-4-2h44-4-4-4------|
D|-2h44-4-4-4-2h44-4-4-4------|
pm *********************

gtr2 (with delay)
e|--------------------|
b|-7-7-7-5-5-\10-9----|
g|--------------------|
d|--------------------| x as needed
a|--------------------|
E|--------------------|

verse
gtr 1
e|---------------------------------------------------------------------------------|
b|---------------------------------------------------------------------------------|
g|---------------------------------------------------------------------------------|
d|-2h44-4-4-4-2h44-4-4-4-2-2-2-2-2-2-2-2-2-2-0-0-0-0-0-0-0-0-0-0-2-2-4-4-4-4-2h44--|
a|-2h44-4-4-4-2h44-4-4-4-2-2-2-2-2-2-2-2-2-2-0-0-0-0-0-0-0-0-0-0-2-2-4-4-4-4-2h44--|
D|-2h44-4-4-4-2h44-4-4-4-2-2-2-2-2-2-2-2-2-2-0-0-0-0-0-0-0-0-0-0-2-2-4-4-4-4-2h44--|
pm ******************************************************************************

gtr2 (with delay)
e|--------------------|
b|-7-7-7-5-5-\10-9----|
g|--------------------|
d|--------------------| x 2
a|--------------------|
E|--------------------|

e|-----------------------------------|
b|-7-7-7-\-9-9-9-\-101010-\-121212~--|
g|-----------------------------------| x2
d|-----------------------------------|
a|-----------------------------------|
E|-----------------------------------|

gtr1
e|------------------------------------|
b|------------------------------------|
g|------------------------------------|
d|-2-2-2-2-2-2-2h2-4-4-4-4-4-4-4-4----| X 2
a|-2-2-2-2-2-2-2h2-4-4-4-4-4-4-4-4----|
D|-2-2-2-2-2-2-2h2-4-4-4-4-4-4-4-4----|
pm *******************************

Gtr2 (with delay)
e|--------------------|
b|-7-7-7-7-7-7-7-7-7--|
g|--------------------|
d|--------------------|
a|--------------------|
E|--------------------|



Chorus
Gtr 1
e|-2-|
b|-3-|
g|-2-|
d|-0-|
a|-0-|
D|-0-|

Gtr 2
e|-----------------------------------|
b|-7-7-7-\-9-9-9-\-101010-\-121212~--|
g|-----------------------------------| x2
d|-----------------------------------|
a|-----------------------------------|
E|-----------------------------------|

chorus part 2
gtr 1
e|-------------------------------------------------------------------|
b|-------------------------------------------------------------------|
g|-------------------------------------------------------------------|
d|-4-4-4-4-4-4-4-4-4-4-2-2-2-2-2-2-2-2-2-2-0-0-0-0-0-0-0-0-0-0-0-2-4-| x 2
a|-4-4-4-4-4-4-4-4-4-4-2-2-2-2-2-2-2-2-2-2-0-0-0-0-0-0-0-0-0-0-0-2-4-|
D|-4-4-4-4-4-4-4-4-4-4-2-2-2-2-2-2-2-2-2-2-0-0-0-0-0-0-0-0-0-0-0-2-4-|

gtr 2
e|-----------------------------------------2-2-2-2-2-2-2-2-2-2-------|
b|-----------------------------------------3-3-3-3-3-3-3-3-3-3-------|
g|---------------------1-1-1-1-1-1-1-1-1-1-2-2-2-2-2-2-2-2-2-2-------|
d|-4-4-4-4-4-4-4-4-4-4-2-2-2-2-2-2-2-2-2-2-0-0-0-0-0-0-0-0-0-0-------|
a|-4-4-4-4-4-4-4-4-4-4-2-2-2-2-2-2-2-2-2-2---------------------------|
E|-2-2-2-2-2-2-2-2-2-2-0-0-0-0-0-0-0-0-0-0---------------------------|

Gtr 1
e|---------------------------------------------|
b|---------------------------------------------|
g|---------------------------------------------|
d|-2-2-2-2-2-2-2-2-2-2-0-0-0-0-0-0-0-0-0-0-0---|
a|-2-2-2-2-2-2-2-2-2-2-0-0-0-0-0-0-0-0-0-0-0---|
D|-2-2-2-2-2-2-2-2-2-2-0-0-0-0-0-0-0-0-0-0-0---|

Gtr 2

e|---------------------2-2-2-2-2-2-2-2-2-2-|
b|---------------------3-3-3-3-3-3-3-3-3-3-|
g|-1-1-1-1-1-1-1-1-1-1-2-2-2-2-2-2-2-2-2-2-|
d|-2-2-2-2-2-2-2-2-2-2-0-0-0-0-0-0-0-0-0-0-|
a|-2-2-2-2-2-2-2-2-2-2---------------------|
E|-0-0-0-0-0-0-0-0-0-0---------------------|


Bridge
gtr1
e|------------------------------------------------------------|
b|------------------------------------------------------------|
g|------------------------------------------------------------|
d|-9-9-9-9-9-9-9-9-9-0-0-0-0-0-0-0-0-0-0-2-2-2-2-2-2-2-2-2-2--|
a|-9-9-9-9-9-9-9-9-9-0-0-0-0-0-0-0-0-0-0-2-2-2-2-2-2-2-2-2-2--|
D|-9-9-9-9-9-9-9-9-9-0-0-0-0-0-0-0-0-0-0-2-2-2-2-2-2-2-2-2-2--|

e|-------------------------------------------------------------|
b|-------------------------------------------------------------|
g|-------------------------------------------------------------|
d|-9-9-9-9-9-9-9-9-9-2-2-2-2-2-2-2-2-2-2-4-4-4-4-4-4-4-4-4-4---|
a|-9-9-9-9-9-9-9-9-9-2-2-2-2-2-2-2-2-2-2-4-4-4-4-4-4-4-4-4-4---|
D|-9-9-9-9-9-9-9-9-9-2-2-2-2-2-2-2-2-2-2-4-4-4-4-4-4-4-4-4-4---|


Chorus
Gtr 1
e|-2-|
b|-3-|
g|-2-|
d|-0-|
a|-0-|
D|-0-|

Gtr 2
e|-----------------------------------|
b|-7-7-7-\-9-9-9-\-101010-\-121212~--|
g|-----------------------------------| x2
d|-----------------------------------|
a|-----------------------------------|
E|-----------------------------------|

chorus part 2
gtr 1
e|-------------------------------------------------------------------|
b|-------------------------------------------------------------------|
g|-------------------------------------------------------------------|
d|-4-4-4-4-4-4-4-4-4-4-2-2-2-2-2-2-2-2-2-2-0-0-0-0-0-0-0-0-0-0-0-2-4-| x 2
a|-4-4-4-4-4-4-4-4-4-4-2-2-2-2-2-2-2-2-2-2-0-0-0-0-0-0-0-0-0-0-0-2-4-|
D|-4-4-4-4-4-4-4-4-4-4-2-2-2-2-2-2-2-2-2-2-0-0-0-0-0-0-0-0-0-0-0-2-4-|

gtr 2
e|-----------------------------------------2-2-2-2-2-2-2-2-2-2-------|
b|-----------------------------------------3-3-3-3-3-3-3-3-3-3-------|
g|---------------------1-1-1-1-1-1-1-1-1-1-2-2-2-2-2-2-2-2-2-2-------|
d|-4-4-4-4-4-4-4-4-4-4-2-2-2-2-2-2-2-2-2-2-0-0-0-0-0-0-0-0-0-0-------|
a|-4-4-4-4-4-4-4-4-4-4-2-2-2-2-2-2-2-2-2-2---------------------------|
E|-2-2-2-2-2-2-2-2-2-2-0-0-0-0-0-0-0-0-0-0---------------------------|

Gtr 1
e|---------------------------------------------|
b|---------------------------------------------|
g|---------------------------------------------|
d|-2-2-2-2-2-2-2-2-2-2-0-0-0-0-0-0-0-0-0-0-0---|
a|-2-2-2-2-2-2-2-2-2-2-0-0-0-0-0-0-0-0-0-0-0---|
D|-2-2-2-2-2-2-2-2-2-2-0-0-0-0-0-0-0-0-0-0-0---|

Gtr 2

e|---------------------2-2-2-2-2-2-2-2-2-2-|
b|---------------------3-3-3-3-3-3-3-3-3-3-|
g|-1-1-1-1-1-1-1-1-1-1-2-2-2-2-2-2-2-2-2-2-|
d|-2-2-2-2-2-2-2-2-2-2-0-0-0-0-0-0-0-0-0-0-|
a|-2-2-2-2-2-2-2-2-2-2---------------------|
E|-0-0-0-0-0-0-0-0-0-0---------------------|

outro
e|--------------------------------------------------------------|
b|--------------------------------------------------------------|
g|--------------------------------------------------------------|
d|-6-6-6-6-6-6-6-6-0/7-7-6-6-6-6-6-6-6-7-7-7-7-7-7-6-6-6-6-6-6--|
a|-4-4-4-4-4-4-4-4-0/7-7-6-6-6-6-6-6-6-5-5-5-5-5-5-4-4-4-4-4-4--|
D|-4-4-4-4-4-4-4-4-0/7-7-6-6-6-6-6-6-6-0-0-0-0-0-0-4-4-4-4-4-4--|
pm *********************************************************
Добавлено: 09.06.2012
Другие материалы по этой песне:
  • Аккорды и текст

Страница создана 09.06.2012
http://primanota.ru/gyroscope/ok-chords.htm
Привет, Гость.
Предлагаем пройти революционный курс по гитаре.
Подарок от PrimaNota.Ru, забирай!