PrimaNota.ru - самый крупный в мире бесплатный архив песенных текстов, аккордов, табулатур и нот


Gyroscope - Monument - таба, видео

Регистрация Запомнить меня
Войти через:  Facebook Google Twitter Vk Yandex Mail.ru

Gyroscope - Monument - таба, видео

Печатать
Просмотров: 156
Уроки эстрадного вокала в Санкт-Петербурге
Авторы музыки: Kevin Mitchell, Brett Mitchell, Chris Daymond, Vanessa Thornton
Авторы текста: Kevin Mitchell, Brett Mitchell, Chris Daymond, Vanessa Thornton
Monument - Gyroscope
Album:Fast Girl/beware Wolf Maxi Single
B-side
Tabbed By: Elias Allanby(LPaustralia@hotmail.com)

www.thenumlocks.com

This Is The Rythem Guitar

Intro(0:07)
e|---------------------------------------|
B|---------------------------------------|
G|-66666666--99999999--------------------|
D|-66666666--99999999--77777777-77777777-|
A|-44444444--77777777--77777777-77777777-| x2
E|---------------------55555555-55555555-|
PM... .... .... .... ..... ... .... ... .


Verse(0:22)
e|---------------------------------------|
B|---------------------------------------|
G|-66666666--99999999--------------------|
D|-66666666--99999999--77777777-77777777-|
A|-44444444--77777777--77777777-77777777-| x4
E|---------------------55555555-55555555-|
PM... .... .... .... ..... ... .... ... .


Pre Chorus(0:53)
e|-------------------|
B|-------------------|
G|-------------------|
D|-6666-777-99999999-|
A|-6666-777-99999999-| x4
E|-4444-555-77777777-|


Chorus(1:08)
e|------------------------|
B|------------------------|
G|-6666--9999-------------|
D|-6666--9999--9999--7777-|
A|-4444--7777--9999--7777-| x4
E|-------------7777--5555-|

Interlude(1:24)
e|---------------------------------------|
B|---------------------------------------|
G|-66666666--99999999--------------------|
D|-66666666--99999999--77777777-77777777-|
A|-44444444--77777777--77777777-77777777-| x2
E|---------------------55555555-55555555-|
PM... .... .... .... ..... ... .... ... .


Verse 2(1:39)
e|---------------------------------------|
B|---------------------------------------|
G|-66666666--99999999--------------------|
D|-66666666--99999999--77777777-77777777-|
A|-44444444--77777777--77777777-77777777-| x4
E|---------------------55555555-55555555-|
PM... .... .... .... ..... ... .... ... .


Pre Chorus(2:10)
e|-------------------|
B|-------------------|
G|-------------------|
D|-6666-777-99999999-|
A|-6666-777-99999999-| x4
E|-4444-555-77777777-|


Chorus(2:25)
e|------------------------|
B|------------------------|
G|-6666--9999-------------|
D|-6666--9999--9999--7777-|
A|-4444--7777--9999--7777-| x8
E|-------------7777--5555-|



Bridge(2:57)
e|----------------------------------------|
B|----------------------------------------|
G|---------------------------999999999999-|
D|-777777777777777777777777--999999999999-|
A|-777777777777777777777777--777777777777-| x4
E|-555555555555555555555555---------------|

(3:27)
e|---------------------------------------|
B|---------------------------------------|
G|-66666666-99999999---------------------|
D|-66666666-99999999-77-77-7777-777-7777-|
A|-44444444-77777777-77-77-7777-777-7777-| x4
E|-------------------55-55-5555-555-5555-|


End(3:57)
e|----|
B|----|
G|----|
D|-7~-|
A|-7~-|
E|-5~-|






This is the Lead Guitar

Tabbed by my Friend, 
pappy182@hotmail.com

Intro - (0:00 - 0:45)

e|-0-4-0-2-4-2-0--0-4-0-2-4-2-4--00-4-0-2-4-2-0--0-5-4-0-5-4-0-|
B|-------------------------------------------------------------|
G|-------------------------------------------------------------|
D|-------------------------------------------------------------|X6
A|-------------------------------------------------------------|
E|-------------------------------------------------------------|

(0:45 - 0:49)

e|--0-4-0-2-4-2-0-|-0-4-0-2-4-2-4-|
B|--------------------------------|
G|--------------------------------|
D|--------------------------------|X1
A|--------------------------------|
E|--------------------------------|

(0:49 - 0:52)

e|--00000000-X2-------|
B|-------------- 2~.--|
G|--------------------|
D|--------------------|X1
A|--------------------|
E|--------------------|

 
Pre Chorus (0:52 - 1:08)

e|-------------------|
B|-------------------|
G|-------------------|
D|-6666-777-99999999-|
A|-6666-777-99999999-| x4
E|-4444-555-77777777-|


Chorus(1:08 - 1:23)

e|------------------------|
B|------------------------|
G|-6666--9999-------------|
D|-6666--9999--9999--7777-|
A|-4444--7777--9999--7777-| x4
E|-------------7777--5555-|

Verse 2 (1:24 -1:31) 

e|-0-4-0-2-4-2-0--0-4-0-2-4-2-4--00-4-0-2-4-2-0--0-5-4-0-5-4-0-|
B|-------------------------------------------------------------|
G|-------------------------------------------------------------|
D|-------------------------------------------------------------|X1
A|-------------------------------------------------------------|
E|-------------------------------------------------------------|

(1:31 - 1:39) 

e|--0-54--X6-/12~--5-7-5-4--|
B|-----------/12~-----------|
G|--------------------------|
D|--------------------------|X1
A|--------------------------|
E|--------------------------|

(1:39 - 1:54)

e|-0-4-0-2-4-2-0--0-4-0-2-4-2-4--00-4-0-2-4-2-0--0-5-4-0-5-4-0-|
B|-------------------------------------------------------------|
G|-------------------------------------------------------------|
D|-------------------------------------------------------------|
A|-------------------------------------------------------------|X2
E|-------------------------------------------------------------|

Pre Chorus (1:54 - 2:03)

e|--0-54-X6-/12~--5-7-5-4--|
B|----------/12~-----------|
G|-------------------------|
D|-------------------------|
A|-------------------------|X1
E|-------------------------|

Pre Chorus (2:03 - 2:06)

e|--0-4-0-2-4-2-0-|-0-4-0-2-4-2-4-|
B|--------------------------------|
G|--------------------------------|
D|--------------------------------|X1
A|--------------------------------|
E|--------------------------------|

(2:06 - 2:10)

e|--000000-2-2b3b2-2b3b2-2b3b2-0~---|
B|-------------- -------------------|
G|----------------------------------|
D|----------------------------------|X1
A|----------------------------------|
E|----------------------------------| 

Pre Chorus (2:10 - 2:25)

e|-------------------|
B|-------------------|
G|-------------------|
D|-6666-777-99999999-|
A|-6666-777-99999999-| x4
E|-4444-555-77777777-|

Chorus (2:25 - 2:56)

e|------------------------|
B|------------------------|
G|-6666--9999-------------|
D|-6666--9999--9999--7777-|
A|-4444--7777--9999--7777-| x8
E|-------------7777--5555-|

Lead Solo (2:56 - 3:27)

e|-9---------------|
B|-9-Strum--5-X8---|
G|-----------------|
D|-----------------|X4
A|-----------------| 
E|-----------------|

Rhythm Solo (3:27 - End) 

e|---------------------------------------|
B|---------------------------------------|
G|-66666666-99999999---------------------|
D|-66666666-99999999-77-77-7777-777-7777-|
A|-44444444-77777777-77-77-7777-777-7777-| x4
E|-------------------55-55-5555-555-5555-|

Lead Solo Part 2 (3:42 -3:50) 

e|-2222222-2b3b3-0---0-2b3b2-0---0-2b3b2-0---0---0.-0.-0.-|
B|-----------------2-----------2-----------2--------------|
G|--------------------------------------------------------|
D|--------------------------------------------------------|
A|--------------------------------------------------------| 
E|--------------------------------------------------------|

(3:50 - End)

e|-12.-12.-12.--9~--12.-9.-9.-12.-12.-12.-9.-9.-0~-|
B|-12.-12.-12.--9~--12.-9.-9.-12.-12.-12.-9.-9.----|
G|-------------------------------------------------|
D|-------------------------------------------------|
A|-------------------------------------------------| 
E|-------------------------------------------------|
Добавлено: 07.04.2012
Другие материалы по этой песне:
  • Аккорды и текст

Страница создана 07.04.2012
http://primanota.ru/gyroscope/monument-chords.htm
Привет, Гость.
Предлагаем пройти революционный курс по гитаре.
Подарок от PrimaNota.Ru, забирай!