PrimaNota.ru - самый крупный в мире бесплатный архив песенных текстов, аккордов, табулатур и нот


Gyroscope - Live Without You - таба, видео

Регистрация Запомнить меня
Войти через:  Facebook Google Twitter Vk Yandex Mail.ru

Gyroscope - Live Without You - таба, видео

Печатать
Просмотров: 105
Уроки эстрадного вокала в Санкт-Петербурге
Live Without You - Gyroscope
Tabbed By: Matt Heal
Email: mattheal @ gmail.com

Ok this is a new song of Gyroscopes upcoming 4th album, its available for a listen too here 
www.myspace/gyroscope

this has been tabbed from that version so it may well change if this isnt the 
version used for the album.

Intro: crazy delay type stuff that Zok plays live but i havent worked out yet

Verse

e|----------------------------------------------|
b|----------------------------------------------|
g|----------------------------------------------|
d|-5-5--5-5----5-5--5-5----5-5--5-5----5-5--5-5-|
a|-5-5--5-5----5-5--5-5----5-5--5-5----5-5--5-5-|
E|-3-3--3-3----3-3--3-3----3-3--3-3----3-3--3-3-|


e|----------------------------------------------|
b|----------------------------------------------|
g|----------------------------------------------|
d|-3-3--3-3----3-3--3-3----3-3--3-3----3-3--3-3-|
a|-3-3--3-3----3-3--3-3----3-3--3-3----3-3--3-3-|
E|-1-1--1-1----1-1--1-1----1-1--1-1----1-1--1-1-|


verse pt 2


e|----------------------------------------------|
b|----------------------------------------------|
g|----------------------------------------------|
d|-5-5--5-5---\5-5--5-5---\5-5--5-5---\5-5--5-5-|
a|-5-5--5-5---\5-5--5-5---\5-5--5-5---\5-5--5-5-|
E|-3-3--3-3---\3-3--3-3---\3-3--3-3---\3-3--3-3-|

e|----------------------------------------------|
b|----------------------------------------------|
g|----------------------------------------------|
d|\3-3--3-3---\3-3--3-3---\3-3--3-3---3-3-3-3-3-|
a|\3-3--3-3---\3-3--3-3---\3-3--3-3---3-3-3-3-3-|
E|\1-1--1-1---\1-1--1-1---\1-1--1-1---1-1-1-1-1-|

Chorus x 2
Dan (these chords as many as needed)
e|-----------------------------------------------|
b|-----------------------------------------------|
g|-----------------------------------------------|
d|-5-5-5-5-5-5-5-5-5-5-5-5---3-3-3-3-3-3-3-3-3-3-|
a|-5-5-5-5-5-5-5-5-5-5-5-5---3-3-3-3-3-3-3-3-3-3-|
E|-3-3-3-3-3-3-3-3-3-3-3-3---1-1-1-1-1-1-1-1-1-1-|


Zok
e|----------------|
b|----------------|
g|----------------|
d|-5-5------------| x 4
a|-5-5------------|
E|-3-3-\17-18-18--|

e|---------------|
b|---------------|
g|---------------| x 4
d|-3-3-----------|
a|-3-3-----------|
E|-1-1-\15-17-17-|

Verse 2:
Dan just sings, and Zok Plays

e|------------------------------------------------|
b|------------------------------------------------|
g|------------------------------------------------|
d|-----------5-----------5-----------5----------5-|
a|------------------------------------------------|
E|-3-3--3-3----3-3--3-3----3-3--3-3----3-3--3-3---|


e|-----------------------------------------------|
b|-----------------------------------------------|
g|-----------------------------------------------|
d|-----------3-----------3-------------3-3-3-3-3-|
a|-------------------------------------3-3-3-3-3-|
E|-1-1--1-1----1-1--1-1----1-1--1-1----1-1-1-1-1-|

Chorus again


Chorus x 2
Dan (these chords as many as needed)
e|-----------------------------------------------|
b|-----------------------------------------------|
g|-----------------------------------------------|
d|-5-5-5-5-5-5-5-5-5-5-5-5---3-3-3-3-3-3-3-3-3-3-|
a|-5-5-5-5-5-5-5-5-5-5-5-5---3-3-3-3-3-3-3-3-3-3-|
E|-3-3-3-3-3-3-3-3-3-3-3-3---1-1-1-1-1-1-1-1-1-1-|


Zok
e|----------------|
b|----------------|
g|----------------|
d|-5-5------------| x 4
a|-5-5------------|
E|-3-3-\17-18-18--|

first time through play
e|---------------|
b|---------------|
g|---------------|
d|-3-3-----------| x4
a|-3-3-----------|
E|-1-1-\15-17-17-|

second time through the chorus at the f chord,

Dan & Zok

e|----------------------------------------------------------------|
b|-------------------------------------------2-2-2-2-2-2-2-2-2-2--|
g|----------------------5-5-5-5-5-5-5-5-5-5--3-3-3-3-3-3-3-3-3-3--|
d|-3-3-3-3-3-3-3-3-3-3--5-5-5-5-5-5-5-5-5-5--3-3-3-3-3-3-3-3-3-3--|
a|-3-3-3-3-3-3-3-3-3-3--3-3-3-3-3-3-3-3-3-3--1-1-1-1-1-1-1-1-1-1--|
E|-1-1-1-1-1-1-1-1-1-1--------------------------------------------|

e|--------------------------------------|
b|--------------------------------------|
g|-8-8--8-8-8--8-8-8--8-8-10--101010----|
d|-8-8--8-8-8--8-8-8--8-8-8---8-8-8-----|
a|-6-6--6-6-6--6-6-6--6-6-6---6-6-6-----|
E|--------------------------------------|


Bridge:

Just Zok
e|-----------------------------------|
b|-----------------------------------|
g|-----------------------------------| x3 times gradually getting louder
d|-----------------------------------|
a|-1-1-1-1--3-3-3-3------------------|
E|------------------3-3-3-1--3-3-3-1-|


Zok
e|-----------------------------------|
b|-----------------------------------|
g|-3-3-3-3--5-5-5-5------------------| 
d|-3-3-3-3--5-5-5-5-5-5-5-3--5-5-5-3-|
a|-1-1-1-1--3-3-3-3-5-5-5-3--5-5-5-3-|
E|------------------3-3-3-1--3-3-3-1-|

Dan
e|----------------------------------------------------|
b|----------------------------------------------------|
g|----------------------------------------------------|
d|----------------------------------------------------|
a|-12h13-12h13-12h13-12h13-12h13-12h13-12h13-12/10----|
E|----------------------------------------------------|

Then just build up to the chorus a G

Chorus x 2
Dan (these chords as many as needed)
e|-----------------------------------------------|
b|-----------------------------------------------|
g|-----------------------------------------------|
d|-5-5-5-5-5-5-5-5-5-5-5-5---3-3-3-3-3-3-3-3-3-3-|
a|-5-5-5-5-5-5-5-5-5-5-5-5---3-3-3-3-3-3-3-3-3-3-|
E|-3-3-3-3-3-3-3-3-3-3-3-3---1-1-1-1-1-1-1-1-1-1-|


Zok
e|----------------|
b|----------------|
g|----------------|
d|-5-5------------| x 4
a|-5-5------------|
E|-3-3-\17-18-18--|

first time through play
e|---------------|
b|---------------|
g|---------------|
d|-3-3-----------| x4
a|-3-3-----------|
E|-1-1-\15-17-17-|

second time through the chorus at the f chord,

Dan & Zok

e|----------------------------------------------------------------|
b|-------------------------------------------2-2-2-2-2-2-2-2-2-2--|
g|----------------------5-5-5-5-5-5-5-5-5-5--3-3-3-3-3-3-3-3-3-3--|
d|-3-3-3-3-3-3-3-3-3-3--5-5-5-5-5-5-5-5-5-5--3-3-3-3-3-3-3-3-3-3--|
a|-3-3-3-3-3-3-3-3-3-3--3-3-3-3-3-3-3-3-3-3--1-1-1-1-1-1-1-1-1-1--|
E|-1-1-1-1-1-1-1-1-1-1--------------------------------------------|

end with

e|----------------------------------------------|
b|----------------------------------------------|
g|----------------------------------------------|
d|-5-5--5-5----5-5--5-5----5-5--5-5----5-5--5-5-|
a|-5-5--5-5----5-5--5-5----5-5--5-5----5-5--5-5-|
E|-3-3--3-3----3-3--3-3----3-3--3-3----3-3--3-3-|
Добавлено: 02.07.2012
Другие материалы по этой песне:
  • Аккорды и текст

Страница создана 02.07.2012
http://primanota.ru/gyroscope/live-without-you-chords.htm
Привет, Гость.
Предлагаем пройти революционный курс по гитаре.
Подарок от PrimaNota.Ru, забирай!